Guitar Tabs for My First Song

(/) Slide Up  (\) Slide Down  (h) Hammer On  (p) Pull Off  (b) Bend (r) Release (v) Vibrato (x) Muted

Tabs for Song : 

Song lyrics here
E|--------------------------------------------------------------------------------------------------
B|--------------------------------------------------------------------------------------------------
G|--------------------------------------------------------------------------------------------------
D|-----------4--------4--------------7--------7--------------2--------2--------------4-----------4--
A|--------5--------5-----5--------8--------8-----8--------3--------3-----3--------5--------5--5-----
E|--3-----------------------6-----------------------1-----------------------3-----------------------

Song lyrics here
E|--3-----------------------3-----------------------1-----------------------3--
B|--3-----------------------3-----------------------1-----------------------3--
G|--3-----------------------3-----------------------1-----------------------3--
D|--5-----------------------5-----------------------3-----------------------5--
A|--5-----------------------5-----------------------3-----------------------5--
E|--3-----------------------3-----------------------1-----------------------3--

Now supports capo and sound effects for vibrato/pull-off/hammer/bends/mutes etc !!! Checkout help section
tabs and chords, guitar tabs, music transcription, music technology, deep learning, music information retrieval, transcribe into tabs & chords, chordify, music renditions, songsterr, reverbnation, tabulature, bollywood chords, ultimate guitar, yousician, guitar lessons, acoustic guitar, electric guitar, guitar tuner, 911 tabs