Guitar Tabs for My First Ever Song

(/) Slide Up  (\) Slide Down  (h) Hammer On  (p) Pull Off  (b) Bend (r) Release (v) Vibrato (x) Muted

Tabs for Song : 

Song lyrics here
E|--
B|--
G|--
D|--
A|--
E|--

Song lyrics here
E|-----------------------------------2-----------2--------------------------------------------------
B|-----------2-----------2-----3-----------3-----------------2-----------2-----------3-----------3--
G|-----2-----------2--------2-----2-----2-----2--------2-----------2-----------4-----------4--------
D|--2-----2-----2-----2-----------------------------4-----4-----4-----4-----6-----6-----6-----6-----
A|--------------------------------------------------------------------------------------------------
E|--------------------------------------------------------------------------------------------------

E|-----------------------------------2-----------2--------------------------------------------------
B|-----------2-----------2-----3-----------3-----------------2-----------2-----------3-----------3--
G|-----2-----------2--------2-----2-----2-----2--------2-----------2-----------4-----------4--------
D|--2-----2-----2-----2-----------------------------4-----4-----4-----4-----6-----6-----6-----6-----
A|--------------------------------------------------------------------------------------------------
E|--------------------------------------------------------------------------------------------------

E|--------------
B|--------------
G|--------------
D|--6--5--4--3--
A|--------------
E|--------------

E|--------------------2-----2--------2-----2-----------------
B|-----2-----2--------3-----3--------2-----2--------3-----3--
G|-----2-----2-----2--2--2--2--------2-----2--------4-----4--
D|--2--2--2--2--------------------4--4--4--4-----6--6--6--6--
A|-----------------------------------------------------------
E|-----------------------------------------------------------

E|--------------------2-----2--------2-----2-----------------
B|-----2-----2--------3-----3--------2-----2--------3-----3--
G|-----2-----2-----2--2--2--2--------2-----2--------4-----4--
D|--2--2--2--2--------------------4--4--4--4-----6--6--6--6--
A|-----------------------------------------------------------
E|-----------------------------------------------------------

E|--------2--------2--------------------------------4--------4--
B|--------3--------3--------------------------------5--------5--
G|-----4--4-----4--4-----------1--------1--------6--6-----6--6--
D|--4-----4--4-----4--------2--2-----2--2-----6-----6--6-----6--
A|-----------------------2-----2--2-----2-----------------------
E|--------------------------------------------------------------

E|--------------
B|--------------
G|--------------
D|--6--5--4--3--
A|--------------
E|--------------

E|--------------------2-----2--------2-----2-----------------
B|-----2-----2--------3-----3--------2-----2--------3-----3--
G|-----2-----2-----2--2--2--2--------2-----2--------4-----4--
D|--2--2--2--2--------------------4--4--4--4-----6--6--6--6--
A|-----------------------------------------------------------
E|-----------------------------------------------------------

E|--------------------2-----2--------2-----2-----------------
B|-----2-----2--------3-----3--------2-----2--------3-----3--
G|-----2-----2-----2--2--2--2--------2-----2--------4-----4--
D|--2--2--2--2--------------------4--4--4--4-----6--6--6--6--
A|-----------------------------------------------------------
E|-----------------------------------------------------------

E|--------2--------2--------------------------------4--------4--
B|--------3--------3--------------------------------5--------5--
G|-----4--4-----4--4-----------1--------1--------6--6-----6--6--
D|--4-----4--4-----4--------2--2-----2--2-----6-----6--6-----6--
A|-----------------------2-----2--2-----2-----------------------
E|--------------------------------------------------------------

E|--------------------------
B|--------5-----------------
G|-----6-----6--------------
D|--------------6--5--4--3--
A|--4-----------------------
E|--------------------------

E|--------------------2-----2--------2-----2-----------------
B|-----2-----2--------3-----3--------2-----2--------3-----3--
G|-----2-----2-----2--2--2--2--------2-----2--------4-----4--
D|--2--2--2--2--------------------4--4--4--4-----6--6--6--6--
A|-----------------------------------------------------------
E|-----------------------------------------------------------

E|--------------------2-----2--------2-----2-----------------
B|-----2-----2--------3-----3--------2-----2--------3-----3--
G|-----2-----2-----2--2--2--2--------2-----2--------4-----4--
D|--2--2--2--2--------------------4--4--4--4-----6--6--6--6--
A|-----------------------------------------------------------
E|-----------------------------------------------------------

E|--------------------------
B|--------2--------------2--
G|-----2--2-----------2--2--
D|--2-----2--------2-----2--
A|--------------------------
E|--------------------------

Paste any tab in acousterr's tab maker and we'll play it !!!
Now supports capo and sound effects for vibrato/pull-off/hammer/bends/mutes etc !!! Checkout help section
tabs and chords, guitar tabs, music transcription, music technology, deep learning, music information retrieval, transcribe into tabs & chords, chordify, music renditions, songsterr, reverbnation, tabulature, bollywood chords, ultimate guitar, yousician, guitar lessons, acoustic guitar, electric guitar, guitar tuner, 911 tabs