My Boy - Bass Tabs

(/) Slide Up  (\) Slide Down  (h) Hammer On  (p) Pull Off  (b) Bend (r) Release (v) Vibrato (x) Muted

Tabs for Song : 
BPM : 200
G|-----------------------------------------------------
D|-----------------------------------------------------
A|-----2-----2-----------------------------------------
E|--2-----------2-----2--3-----3--2-----2--5--5--5--5--

G|--------------------------
D|--------------------------
A|-----2-----2--------------
E|--2-----------2-----2--(3)

G|--------------------------------------------------------------------------
D|-----------------------------------------------------------------------4--
A|-----------------------2--2-----2--2--------------0--5--5-----5-----------
E|--0--0-----0--0--5--5-----------------5--5-----------------------5--5-----

G|--------------------------------------------------------------------------------------
D|--------------------------------------------------------------------------------------
A|-----------------------2--2-----2--2--------------------------------2--2-----2--2--2--
E|--0--0-----0--0--5--5-----------------5--5--3--3-----3--2--2-----2--------------------

G|-----------------------------------------------------------------------------------------------------------------------------
D|-----------------------------------------------------------------------------------------------------------------------------
A|-----2--2--2--2--2--2--2--2-----2--------------------------------------------------------------------------------------------
E|--2--------------------------------2--2--2--2--2--2--2--2-----2--3--3--3--3--3--3--3--3-----3--2--2--2--2-----2--5--5--5--5--

G|-----------------------------------------------------------------------------------------------------------------------
D|-----------------------------------------------------------------------------------------------------------------------
A|-----2--2--2--2--2--2--2--2-----2--------------------------------------------------------------------------------------
E|--2--------------------------------2--2--2--2--2--2--2--2-----2--3--3--3--3-----3--5--5--5--5-----5--7--7--7--7------7\

G|--------------------------------------------------------------------------
D|-----------------------------------------------------------------------4--
A|-----------------------2--2-----2--2--------------0--5--5-----5-----------
E|--0--0-----0--0--5--5-----------------5--5-----------------------5--5-----

G|--------------------------------------------------------------------------------------------
D|--------------------------------------------------------------------------------------------
A|--------------------------------2--2-----------------------------------2--2-----2--2--2-----
E|--0--0-----0--0--5--5--------------------5--5--3--3-----3--2--2-----2-----------------------
Use manual mode to free up cursor. Paste any tab in acousterr tab maker and we'll play it !!!
G|-----------------------------------------------------------------------------
D|-----------------------------------------------------------------4--4--5--4--
A|--------------------2--2--------------------0--5--5-----5--------------------
E|--3--2--0--0-----2-----------5--5--3--3--------------------5-----------------

G|-----------------------------------------------------------------------
D|-----------2--2--2--4--2--0--------------------------------------------
A|-----------------------------2--2-----2--2-----2--------------------2--
E|--0--0--------------------------------------------3--3-----2--2--------

G|-----------------------------------------------------------------------
D|-----------------------------------------------------------------------
A|-----------------------2--2-----2--2--------------0--5--5-----5--------
E|--0--0-----0--0--5--5-----------------5--5-----------------------5--5--

G|--------------------------------------------------------------------------------------------
D|--------------------------------------------------------------------------------------------
A|-----------------------2--2-----2--2-----------------------------------2--2-----2--2--2--2--
E|--0--0-----0--0--5--5-----------------5--5--3--3-----3--2--2-----2--------------------------

G|--9-----4-----------------4--
D|--------------5-----4--------
A|--7-----2-----------------2--
E|--------------3-----2--------

G|--9-----4--------------------
D|-----------------------------
A|--7-----2--------------5--2--
E|-----------------------------



Use manual mode to free up cursor. Paste any tab in acousterr tab maker and we'll play it !!!
tabs and chords, guitar tabs, music transcription, music technology, deep learning, music information retrieval, transcribe into tabs & chords, chordify, music renditions, songsterr, reverbnation, tabulature, bollywood chords, ultimate guitar, yousician, guitar lessons, acoustic guitar, electric guitar, guitar tuner, 911 tabs