Guitar Tabs for My Blood

(/) Slide Up  (\) Slide Down  (h) Hammer On  (p) Pull Off  (b) Bend (r) Release (v) Vibrato (x) Muted

Tabs for Song : 

Song lyrics here
E|--------------x-----------------------x-----------------------x-----------------------x--
B|--1-----------x-----------------------x-----------------------x--------1--------------x--
G|-----3--3--3--x--------3--3--3--3-----x-----3--3-----1--1-----x-----1--------3--1-----x--
D|--------------x-----------------------x-----------------------x-----------------------x--
A|--------------x-----------------------x-----------------------x-----------------------x--
E|--------------x-----------------------x-----------------------x-----------------------x--

E|--------------------x--------------------x--------------------x--------------------x--
B|-----1--------------x--------------------x--------------------x--------1-----------x--
G|--------3--3--3-----x-----3--3-----3-----x-----3--3--1--1-----x-----1-----3--1-----x--
D|--------------------x--------------------x--------------------x--------------------x--
A|--------------------x--------------------x--------------------x--------------------x--
E|--------------------x--------------------x--------------------x--------------------x--

E|-----------------------------x--0-----------------x--------------------------x--------------------x--
B|-----------------1-----------x-----------1--4-----x-----1--------1-----------x--------1-----------x--
G|--------------1-----3--1-----x-----1--3-----------x-----------1-----3--1-----x-----1-----3--1-----x--
D|-----3-----------------------x--------------------x--------------------------x--------------------x--
A|-----------------------------x--------------------x--------------------------x--------------------x--
E|-----------------------------x--------------------x--------------------------x--------------------x--

E|-----------------------------x--------------------x--------------------------x-----------------------x--
B|--------------1--------------x-----------1--4-----x-----1--------1-----------x--------1--1-----------x--
G|-----------1--------3--1-----x-----1--3-----------x-----------1-----3--1-----x--------------3--3-----x--
D|-----3-----------------------x--------------------x--------------------------x-----------------------x--
A|-----------------------------x--------------------x--------------------------x-----------------------x--
E|-----------------------------x--------------------x--------------------------x-----------------------x--

E|-----------------------------x-----------------------x--------------------x--------------------x--
B|-----------------------------x-----------------------x--------------------x-----1--1-----------x--
G|--------3--3--3--1--1--3-----x-----3-----3--1--1-----x-----1--3--1--1-----x-----------3--3-----x--
D|-----------------------------x-----------------------x--------------------x--------------------x--
A|-----------------------------x-----------------------x--------------------x--------------------x--
E|-----------------------------x-----------------------x--------------------x--------------------x--

E|--------------------x--------------------x--------------------x-----------------------x--
B|--------------------x--------------------x--------1-----------x-----------1-----------x--
G|-----3--3--1--1-----x-----3--3--1--1-----x-----1-----3--1-----x--------1-----3--1-----x--
D|--------------------x--------------------x--------------------x-----3-----------------x--
A|--------------------x--------------------x--------------------x-----------------------x--
E|--------------------x--------------------x--------------------x-----------------------x--

E|--------------------x-----------------------------x-----------x-------8--6--4--------4------x--
B|-----------1--4-----x-----1--------1--------------x-----------x-----------------------------x--
G|-----1--3-----------x-----------1-----3-----1-----x-----1-----x-----------------------------x--
D|--------------------x-----------------------------x-----------x-----------------------------x--
A|--------------------x-----------------------------x-----------x-----------------------------x--
E|--------------------x-----------------------------x-----------x-----------------------------x--

E|----4--6--4--6-----8---x----8-----11-8---------------x----------6--4--6---------x-------8--6--4-----4---x--
B|-----------------------x-----------------9-----9-----x-----9--------------6-----x-----------------------x--
G|-----------------------x-----------------------------x--------------------------x-----------------------x--
D|-----------------------x-----------------------------x--------------------------x-----------------------x--
A|-----------------------x-----------------------------x--------------------------x-----------------------x--
E|-----------------------x-----------------------------x--------------------------x-----------------------x--

E|-------4--6-----4--6-----8---x-------8-----8-----11----8------------x----------6-----4--6---------x--------------------------x--
B|-----------------------------x-----------------------------9--9-----x-----9-----------------6-----x--------------------------x--
G|-----------------------------x--------------------------------------x-----------------------------x-----3--3--3-----3--3-----x--
D|-----------------------------x--------------------------------------x-----------------------------x--------------------------x--
A|-----------------------------x--------------------------------------x-----------------------------x--------------------------x--
E|-----------------------------x--------------------------------------x-----------------------------x--------------------------x--

E|--------------------------------------------x--------------------------------------x-----------------------------------------x--------------------------------------x--
B|--------------------------------------------x--------------------------------------x-----------------------------1-----------x--------------------------1-----------x--
G|-----3--3--3--3--3--3--3--3--3--3--3--3-----x-----3--3--3--3--3--3--3--3--3--3-----x-----3--3--3--3--3--3--3--3-----3--1-----x-----3--3--3--3--3--3--------3--1-----x--
D|--------------------------------------------x--------------------------------------x-----------------------------------------x--------------------------------------x--
A|--------------------------------------------x--------------------------------------x-----------------------------------------x--------------------------------------x--
E|--------------------------------------------x--------------------------------------x-----------------------------------------x--------------------------------------x--

E|-----------------------------------------x-----------------------------------x-----------x-------8--6--4--------4---x--
B|-----------------------------1-----------x-----------------------------------x-----------x--------------------------x--
G|-----3--3--3--3--3--3--3--3-----3--1-----x-----1--1--1--1-----1--1--1--1-----x-----1-----x--------------------------x--
D|-----------------------------------------x-----------------------------------x-----------x--------------------------x--
A|-----------------------------------------x-----------------------------------x-----------x--------------------------x--
E|-----------------------------------------x-----------------------------------x-----------x--------------------------x--

E|----------4--6--4--6-----8---x----8-----11-8---------------x----------6--4--6---------x-------8--6--4-----4---x--
B|-----------------------------x--------------------9--9-----x-----9--------------6-----x-----------------------x--
G|-----------------------------x-----------------------------x--------------------------x-----------------------x--
D|-----------------------------x-----------------------------x--------------------------x-----------------------x--
A|-----------------------------x-----------------------------x--------------------------x-----------------------x--
E|-----------------------------x-----------------------------x--------------------------x-----------------------x--

E|-------4--6-----4--6-----8---x-------8-----11----8---------------x----------6-----4--6---------x-------8---------------x--
B|-----------------------------x--------------------------9--9-----x-----9-----------------6-----x-----------9-----------x--
G|-----------------------------x-----------------------------------x-----------------------------x-----------------10----x--
D|-----------------------------x-----------------------------------x-----------------------------x-----------------------x--
A|-----------------------------x-----------------------------------x-----------------------------x-----------------------x--
E|-----------------------------x-----------------------------------x-----------------------------x-----------------------x--

E|-----------------x-------6---------------x-------------4-----3---x-------8-----4------x--
B|-----8-----9-----x-----------------------x-----6-----------------x-----------------6--x--
G|-----------------x-----------6-----5-----x-----------------------x--------------------x--
D|-----------------x-----------------------x-----------------------x--------------------x--
A|-----------------x-----------------------x-----------------------x--------------------x--
E|-----------------x-----------------------x-----------------------x--------------------x--

E|-------3-----4---x----6---------------x-------------4-----3---x--
B|-----------------x--------------------x-----6-----------------x--
G|-----------------x--------6-----5-----x-----------------------x--
D|-----------------x--------------------x-----------------------x--
A|-----------------x--------------------x-----------------------x--
E|-----------------x--------------------x-----------------------x--

E|-----------x-----------x-----------x--------------------------x--
B|-----------x-----------x-----------x--------------------------x--
G|-----------x-----------x-----------x-----3--3--3-----3--3-----x--
D|-----------x-----------x-----------x--------------------------x--
A|-----------x-----------x-----------x--------------------------x--
E|-----------x-----------x-----------x--------------------------x--

E|-----------------------x-----------------------x-----------------------x--------------------x--
B|-----1-----------------x-----------------------x-----------------------x--------1-----------x--
G|-----------3--3--3-----x-----3--3--3-----3-----x--------3--3--1--1-----x-----1-----3--1-----x--
D|-----------------------x-----------------------x-----------------------x--------------------x--
A|-----------------------x-----------------------x-----------------------x--------------------x--
E|-----------------------x-----------------------x-----------------------x--------------------x--

E|--------------------x--------------------x--------------------------x-----------------------x--
B|--------1-----------x-----------1--4-----x-----1--------1-----------x--------1--------------x--
G|-----1-----3--1-----x-----1--3-----------x-----------1-----3--1-----x-----1--------3--1-----x--
D|--------------------x--------------------x--------------------------x-----------------------x--
A|--------------------x--------------------x--------------------------x-----------------------x--
E|--------------------x--------------------x--------------------------x-----------------------x--

E|-----------------------------x-----------------------x-----------------------------------x-----------x--
B|--------------1--------------x--------------1--4-----x-----1-----1-----1-----1-----------x-----------x--
G|-----------1--------3--1-----x-----1--3--------------x--------------------1-----3--1-----x-----------x--
D|-----3-----------------------x-----------------------x-----------------------------------x-----------x--
A|-----------------------------x-----------------------x-----------------------------------x-----------x--
E|-----------------------------x-----------------------x-----------------------------------x-----------x--

E|---------8--6--4--------4----x------4--6--4--6--------8----x------11----8-------------x---------------6--4-6--------x--
B|-----------------------------x-----------------------------x-----------------9--9-----x--------9-----------------6--x--
G|-----------------------------x-----------------------------x--------------------------x-----------------------------x--
D|-----------------------------x-----------------------------x--------------------------x-----------------------------x--
A|-----------------------------x-----------------------------x--------------------------x-----------------------------x--
E|-----------------------------x-----------------------------x--------------------------x-----------------------------x--

E|------------8--6--4-----4----x------4--6--4--6-----8----x------8-----11----8-------------x------------6-----4-6--------x--
B|-----------------------------x--------------------------x-----------------------9--9-----x-----9-----------------6-----x--
G|-----------------------------x--------------------------x--------------------------------x-----------------------------x--
D|-----------------------------x--------------------------x--------------------------------x-----------------------------x--
A|-----------------------------x--------------------------x--------------------------------x-----------------------------x--
E|-----------------------------x--------------------------x--------------------------------x-----------------------------x--

E|-----8--------------x-----------------------x-----6-----------------x---------------4-----3----x--
B|--------9-----------x--------8--------9-----x--------6--------------x--------6-----------------x--
G|--------------10----x-----------------------x-----------------5-----x--------------------------x--
D|--------------------x-----------------------x-----------------------x--------------------------x--
A|--------------------x-----------------------x-----------------------x--------------------------x--
E|--------------------x-----------------------x-----------------------x--------------------------x--

E|---------8-----4----------x---------3-----4----x------6-------------x------------------4-----3----x--
B|--------------------6-----x--------------------x--------------------x--------6--------------------x--
G|--------------------------x--------------------x--------6-----5-----x-----------------------------x--
D|--------------------------x--------------------x--------------------x-----------------------------x--
A|--------------------------x--------------------x--------------------x-----------------------------x--
E|--------------------------x--------------------x--------------------x-----------------------------x--

E|---------8--6--4----4-----x------4--6--4--6-----8----x------8-----11----8-------------x---
B|--------------------------x--------------------------x-----------------------9--9-----x--
G|--------------------------x--------------------------x--------------------------------x--
D|--------------------------x--------------------------x--------------------------------x--
A|--------------------------x--------------------------x--------------------------------x--
E|--------------------------x--------------------------x--------------------------------x--



Song lyrics here
E|--
B|--
G|--
D|--
A|--
E|--

Paste any tab in acousterr's tab maker and we'll play it !!!
Now supports capo and sound effects for vibrato/pull-off/hammer/bends/mutes etc !!! Checkout help section
tabs and chords, guitar tabs, music transcription, music technology, deep learning, music information retrieval, transcribe into tabs & chords, chordify, music renditions, songsterr, reverbnation, tabulature, bollywood chords, ultimate guitar, yousician, guitar lessons, acoustic guitar, electric guitar, guitar tuner, 911 tabs