Guitar Tabs for My All

(/) Slide Up  (\) Slide Down  (h) Hammer On  (p) Pull Off  (b) Bend (r) Release (v) Vibrato (x) Muted

Tabs for Song : 
BPM : 200

Song lyrics here 
E|-----------------------------------------------------------------------------------------------------------------
B|------------3h5------------------2h4--------------------3--------------------------3--------------------3--------
G|--------4--------------------2---------------------0h2-----0------------------0h2-----0------------0h2-----0-----
D|-----5--------------------4------------------2h4--------------4---------2h4------------------2h4-----------------
A|--3--------------------2-----------------------------------------------------------------------------------------
E|-----------------------------------------0--------------------------0--------------------0-----------------------

Song lyrics here 
E|----------------------------------------------------------------------------------------------------------------
B|------------3h5------------------2h4--------------------3-----------------------3-----------------------3--------
G|--------4--------------------2---------------------0h2-----0---------------0h2-----0---------------0h2-----0-----
D|-----5--------------------4------------------2h4---------------------2h4--------------4------2h4-----------------
A|--3--------------------2-----------------------------------------------------------------------------------------
E|-----------------------------------------0-----------------------0-----------------------0-----------------------

Use manual mode to free up cursor. Paste any tab in acousterr tab maker and we'll play it !!!

E|------------5h7--------------------------5--------------------------------------2--3---0h2--0------0h2--0--
B|------------------------------2h4--------5--7-----------------3--------------------------------4-----------
G|--------5-----------------2--------------5---------------0h2-----0---------0h2-----4---0h2--0------0h2--0--
D|-----5-----------------4-----------------7---------2h4--------------4--------------------------4-----------
A|--------------------2--------------------5-----------------------------------------------------------------
E|--5--------------------------------------------0-----------------------------------------------------------

E|----------------------------------------------------------------------
B|------------3h5------------------2h4--------------------3--------0-----
G|--------4--------------------2---------------------0h2-----2-----1-----
D|-----5--------------------4------------------2h4-----------------4-----
A|--3--------------------2-----------------------------------------3-----
E|-----------------------------------------0-----------------------0-----
tabs and chords, guitar tabs, music transcription, music technology, deep learning, music information retrieval, transcribe into tabs & chords, chordify, music renditions, songsterr, reverbnation, tabulature, bollywood chords, ultimate guitar, yousician, guitar lessons, acoustic guitar, electric guitar, guitar tuner, 911 tabs