Guitar Tabs for Muted Riff

(/) Slide Up  (\) Slide Down  (h) Hammer On  (p) Pull Off  (b) Bend (r) Release (v) Vibrato (x) Muted


E|-----------------------------------------
B|-----------------------------------------
G|-----------------------------------------
D|----------------------------------------- X 3
A|------------5h7--------5------5h7--------
E|--0--0----------(0-)---------------------


E|-----------------------------------------
B|-----------------------------------------
G|-----------------------------------------
D|------------5h7-----5--------------------
A|--0--0-----------------7--5--------------
E|-----------------------------7--6---5\3--

tabs and chords, guitar tabs, music transcription, music technology, deep learning, music information retrieval, transcribe into tabs & chords, chordify, music renditions, songsterr, reverbnation, tabulature, bollywood chords, ultimate guitar, yousician, guitar lessons, acoustic guitar, electric guitar, guitar tuner, 911 tabs