Guitar Tabs for Musica 1

(/) Slide Up  (\) Slide Down  (h) Hammer On  (p) Pull Off  (b) Bend (r) Release (v) Vibrato (x) Muted

Tabs for Song : 

Song lyrics here
E|-----0--------0--------0--------0--------0-----------------------0--------0--------0--------0--------0--------------------3--3--------3--------3--------3--------3--------3--3--3--3--
B|--1-----1--------1--------1--------1--------1-----1--1--1--1--------0--------0--------0--------0--------0-----------------3-----3--------3--------3--------3--------3-----3--3--3--3--
G|-----------0--------0--------0--------0--------0--------------1--------1--------1--------1--------1--------1--1--1--1--1--0--------0--------0--------0--------0--------0--0--0--0--0--
D|--2-----------------------------------------------2--2--2--2--2-----------------------------------------------2--2--2--2--0-----------------------------------------------0--0--0--0--
A|--3-----------------------------------------------3--3--3--3--2-----------------------------------------------2--2--2--2--2-----------------------------------------------2--2--2--2--
E|--------------------------------------------------------------------------------------------------------------------------3-----------------------------------------------3--3--3--3--

Song lyrics here
E|--2--2--------2--------2--------2--------2--------2--2--2--2-----0--------0--------0--------0--------0-----------------------0--------0--------0--------0--------0--------------------
B|--3-----3--------3--------3--------3--------3-----3--3--3--3--1-----1--------1--------1--------1--------1-----1--1--1--1--1-----1--------1--------1--------1--------1-----1--1--1--1--
G|--2--------2--------2--------2--------2--------2--2--2--2--2--2--------2--------2--------2--------2--------2--2--2--2--2-----------0--------0--------0--------0--------0--------------
D|--------------------------------------------------------------3-----------------------------------------------3--3--3--3--2-----------------------------------------------2--2--2--2--
A|--------------------------------------------------------------------------------------------------------------------------3-----------------------------------------------3--3--3--3--
E|--------------------------------------------------------------------------------------------------------------------------------------------------------------------------------------

Now supports capo and sound effects for vibrato/pull-off/hammer/bends/mutes etc !!! Checkout help section

E|-----0--------0--------0--------0--------0--------------------
B|--------0--------0--------0--------0--------0-----------------
G|--1--------1--------1--------1--------1--------1--1--1--1--1--
D|--2-----------------------------------------------2--2--2--2--
A|--2-----------------------------------------------2--2--2--2--
E|--------------------------------------------------------------
tabs and chords, guitar tabs, music transcription, music technology, deep learning, music information retrieval, transcribe into tabs & chords, chordify, music renditions, songsterr, reverbnation, tabulature, bollywood chords, ultimate guitar, yousician, guitar lessons, acoustic guitar, electric guitar, guitar tuner, 911 tabs