Guitar Tabs for Mundo

(/) Slide Up  (\) Slide Down  (h) Hammer On  (p) Pull Off  (b) Bend (r) Release (v) Vibrato (x) Muted

Tabs for Song : 
BPM : 200

Song lyrics here
E|-----------------------------------------------------------------------------------------------------------------
B|-----------------------------------------------------------------------------------------------------------14----
G|--------8-----------10----------11----------10----------8-----------10----------------11-13-13b15----13b15-------
D|--------------------------------------------------------------------------------11-13----------------------------
A|---4/9---------9/11-------11/13--------9/11--------4/9---------9/11-------11/13----------------------------------
E|-----------------------------------------------------------------------------------------------------------------

Song lyrics here
E|-----------------------------------------------------------------------------------------------------------------
B|-----------------------------------------------------------------------------------------14----------------------
G|--13b15r13----11----11\10----------11-------------------------------------------11-13b15-------13b15r13----11-13-
D|-----------------13-------11----------------------------------------------11-13----------------------------------
A|-----------------------------11/13----13\11----9--11-------------9--11/13----------------------------------------
E|-----------------------------------------------------------9--11-------------------------------------------------

E|-----------------------------------------------------11-------------11----------------------14-------------------
B|--------------------------------------------------11----14b16----------14-11-------------------------------------
G|-----------13b15r13----11-13-------------11-13b15----------------------------14\13-11-13b15----15r13-11----11\10-
D|--11-13----------------------------11-13----------------------------------------------------------------13-------
A|-----------------------------------------------------------------------------------------------------------------
E|-----------------------------------------------------------------------------------------------------------------

E|-----------------------------------------------------------------------------------------11----------------------
B|--------------------------------------------------------------14-------------------------------------------------
G|-----------11-------------------------------------11----13b15----13b15-13-11----13-13b15----13b15-13-11----13b15-
D|--11----------------------------------------11-13----------------------------------------------------------------
A|-----11/13----11----9--9-----------9--11/13----------------------------------------------------------------------
E|-----------------------------9--11-------------------------------------------------------------------------------

E|-----------------------------11-------------------------------------11-------------------------------------------
B|--14-------------------------------------------------14----------------------------------------------------------
G|-----13b15-13-11----13-13b15----13b15-13-11----13b15-------13-13b15----13b15-13-11----10-10-10-10-11-11-11-11----
D|--------------------------------------------------------------------------------------11-11-11-11-11-11-11-11----
A|-----------------------------------------------------------------------------------------------------------------
E|-----------------------------------------------------------------------------------------------------------------

E|-----------------------------------------------------------------------------x-----------------------------------
B|-----------------------------------------------------------------------------x-----14-------14-------14----------
G|--10-10-10-10-11-11-11-11-10-10-10-10-11-11-11-11-10-10-10-10-11-11-11-11----x-----13b15----13b15----13b15-------
D|--11-11-11-11-11-11-11-11-11-11-11-11-11-11-11-11-11-11-11-11-11-11-11-11----x-----------------------------------
A|-----------------------------------------------------------------------------x-----------------------------------
E|-----------------------------------------------------------------------------x-----------------------------------

E|--------11-11----------11-11----------11-11----------11-11----------11-11-11-------------------------------------
B|--------11-11----------11-11----------11-11----------11-11----------11-11-11-------------------------------------
G|--13b15----------13b15----------13b15----------13b15----------13b15----------------13-13b15r13-11-------13b15r13-
D|--------------------------------------------------------------------------------------------------11-13----------
A|-----------------------------------------------------------------------------------------------------------------
E|-----------------------------------------------------------------------------------------------------------------

E|--------------------------------------------------
B|--------------------------------------------------
G|--------13b15r13-11----10-10-10-10-10-10-10-10-10-
D|--11-13----------------11-11-11-11-11-11-11-11-11-
A|--------------------------------------------------
E|--------------------------------------------------

Paste any tab in acousterr's tab maker and we'll play it !!!
Now supports capo and sound effects for vibrato/pull-off/hammer/bends/mutes etc !!! Checkout help section
tabs and chords, guitar tabs, music transcription, music technology, deep learning, music information retrieval, transcribe into tabs & chords, chordify, music renditions, songsterr, reverbnation, tabulature, bollywood chords, ultimate guitar, yousician, guitar lessons, acoustic guitar, electric guitar, guitar tuner, 911 tabs