Guitar Tabs for Mujhko Barsat Banalo

Mujhko barsaat bana lo
Ek lambi raat bana lo
E|-----------------------------------------------------------------------------------------
B|--------2--3-----3--2--2-----------------------------2--3-----3--2--2--------------------
G|---2/4-----------------------4--2--2-----4------2/4-----------------------4--2--2-----4--
D|-----------------------------------------------------------------------------------------
A|-----------------------------------------------------------------------------------------
E|-----------------------------------------------------------------------------------------

Apne jazbaat bana lo jaana
E|--------------------------------------------------------
B|-----------2-----2--3--5-----3--2--2--------------------
G|-----2--4--------------------------------4--2--2--4-----
D|--------------------------------------------------------
A|--------------------------------------------------------
E|--------------------------------------------------------

Nasha hoon main behakne do
E|--2--2---------------------2h-3p2-----------------------------------------------
B|-----------5--3---3/5--------------5-----2--2--3--5--2---2h3------2h-3p2--------
G|--------------------------------------------------------------------------4-----
D|--------------------------------------------------------------------------------
A|--------------------------------------------------------------------------------
E|--------------------------------------------------------------------------------


Mere qatil mujhe jeene ka haq toh do
E|--2--2-----------------------------------------------------------------------------------------------------
B|-----------5--3--5-----5--5-----3--2--3-----3--3--2--2-----2-----2---2h-3p2--2-----2-----2--2--2--2--2-----
G|--------------------------------------------------------4-----------------------4--------------------------
D|-----------------------------------------------------------------------------------------------------------
A|-----------------------------------------------------------------------------------------------------------
E|-----------------------------------------------------------------------------------------------------------

Mujhko barsaat bana lo
Ek lambi raat bana lo
E|--------------------------------------------------------------------------------------------
B|--------2--3-----3--2--2-----------------------------2--3-----3--2--2-----------------------
G|---2/4-----------------------4--2--2-----4------2/4-----------------------4--2--2-----4-----
D|--------------------------------------------------------------------------------------------
A|--------------------------------------------------------------------------------------------
E|--------------------------------------------------------------------------------------------

Apne jazbaat bana lo jaana
E|-----------------------------------------------------
B|--------2-----2--3--5-----3--2--2--------------------
G|--2--4--------------------------------4--2--2--4-----
D|-----------------------------------------------------
A|-----------------------------------------------------
E|-----------------------------------------------------


Mujhe apne sirhane pe
Thodi si jagah de do
E|--------------------------------------------------------------------------------
B|---5/7--7--7--7--7--5---------------------5/7--7--7--7--7--5--------------------
G|--------------------------7--6---6/7-----------------------------7--6---6/7-----
D|--------------------------------------------------------------------------------
A|--------------------------------------------------------------------------------
E|--------------------------------------------------------------------------------


Mujhe neend na aane ki
E|--------------------------------------------------
B|--------------------------------------------------
G|-----7--7---7/9--9--7---7\6---6\4---4h-6p4--------
D|--------------------------------------------7-----
A|--------------------------------------------------
E|--------------------------------------------------


Koi toh wajah de do
E|-----------------------------------------
B|-----------------------------------------
G|--------7-----7--7---6/7---6h-7p6--4-----
D|---5/7-----------------------------------
A|-----------------------------------------
E|-----------------------------------------

Mujhe apne sirhane pe
Thodi si jagah de do
E|--------------------------------------------------------------------------------
B|---5/7--7--7--7--7--5---------------------5/7--7--7--7--7--5--------------------
G|--------------------------7--6---6/7-----------------------------7--6---6/7-----
D|--------------------------------------------------------------------------------
A|--------------------------------------------------------------------------------
E|--------------------------------------------------------------------------------


Mujhe neend na aane ki
E|--------------------------------------------------
B|--------------------------------------------------
G|-----7--7---7/9--9--7---7\6---6\4---4h-6p4--------
D|--------------------------------------------7-----
A|--------------------------------------------------
E|--------------------------------------------------

Koi toh wajah de do
E|-----------------------------------------
B|-----------------------------------------
G|-----------------------------------------
D|---5/7-----5-----5--5---7/9--9-----9-----
A|-----------------------------------------
E|-----------------------------------------

tabs and chords, guitar tabs, music transcription, music technology, deep learning, music information retrieval, transcribe into tabs & chords, chordify, music renditions, songsterr, reverbnation, tabulature, bollywood chords, ultimate guitar, yousician, guitar lessons, acoustic guitar, electric guitar, guitar tuner, 911 tabs