Guitar Tabs for Much Needed Advice

(/) Slide Up  (\) Slide Down  (h) Hammer On  (p) Pull Off  (b) Bend (r) Release (v) Vibrato (x) Muted

Tabs for Song : 

Song lyrics here






E|---------------------------------------------------
B|------------------------------5--------------------
G|----5-----4----------4--7--4-----4--4--5--4--------
D|-------7-----5----5--------------------------7-----
A|---------------------------------------------------
E|---------------------------------------------------

E|-------------------------------------------------
B|-----------5-------------------------------------
G|-----4--5-----5-----5--5-----5--7--5---5h-7p-5\4-
D|-------------------------------------------------
A|-------------------------------------------------
E|-------------------------------------------------

E|---------------------------5--------5-----8--7--5--5-----8--10-8--7--
B|---3--5--3--7-----3--5--3--7-----7--7--7--10-8--7--7-----10-12-10-8--
G|---4--5--4--7-----4--5--4--------7-----7-----------------------------
D|---------------------------------------------------------------------
A|---------------------------------------------------------------------
E|---------------------------------------------------------------------


Song lyrics here


Paste any tab in acousterr's tab maker and we'll play it !!!
Now supports capo and sound effects for vibrato/pull-off/hammer/bends/mutes etc !!! Checkout help section
tabs and chords, guitar tabs, music transcription, music technology, deep learning, music information retrieval, transcribe into tabs & chords, chordify, music renditions, songsterr, reverbnation, tabulature, bollywood chords, ultimate guitar, yousician, guitar lessons, acoustic guitar, electric guitar, guitar tuner, 911 tabs