Guitar Tabs for Mrs. Ativan

(/) Slide Up  (\) Slide Down  (h) Hammer On  (p) Pull Off  (b) Bend (r) Release (v) Vibrato (x) Muted

Tabs for Song : 
BPM : 200

intro here for lead
E|--------------17----------------------17----------------------17----------------------17----------------------17-
B|-----16----16----16----16----16----16----16----16----16----16----16----16----16----16----16----16----16----16----
G|--19----19----------19----19----19----------19----19----19----------19----19----19----------19----19----19-------
D|-----------------------------------------------------------------------------------------------------------------
A|-----------------------------------------------------------------------------------------------------------------
D|-----------------------------------------------------------------------------------------------------------------

Intro Riff
E|--------------------------------------------------------------------------
B|--------------------------------------------------------------------------
G|--------------------------------------------------------------------------
D|--------------------------------------------------------------------------
A|--------------------------------------------------------------------------
D|--0--1--2--0--3--2--1--0--0--1--2--0--3--2--1--0--0--1--2--0--3--2--1--0--

Verse:
E|--------------------------------------------------------------------------------------------------
B|--------------------------------------------------------------------------------------------------
G|--------------------------------------------------------------------------------------------------
D|--------------------------------------------------------------------------------------------------
A|--------------3--5--------------------3--5--------------------3--5--------5--6--0--5--6--0--5--6--
D|--0-----0--0--------0--0--0--0--0--0--------0--0--0--0--0--0--------0--0--------------------------

Up/Down Strum Double time.
E|--------------------------------------------------------
B|--------------------------------------------------------
G|--------------------------------------------------------
D|--------------------------------------------------------
A|--5--5--5--5--5--5--8--8--8--8--8--8--1--1--1--1--------
D|--5--5--5--5--5--5--8--8--8--8--8--8--1--1--1--1--------
RHY for 
E|-----------------------------------------------------------------------------------------------------
B|-----------------------------------------------------------------------------------------------------
G|-----------------------------------------------------------------------------------------------------
D|-----------------------------------------------------------------------------------------------------
A|---3p5--5--5--5--5---3p5--5--5--5--5--5--5--5--5---5p6--6--6--6--6---5p6--6--6--6--6--6--6--6--6-----
D|-----------------------------------------------------------------------------------------------------

E|-----------------------------------------------------------------------------------------------------
B|-----------------------------------------------------------------------------------------------------
G|-----------------------------------------------------------------------------------------------------
D|-----------------------------------------------------------------------------------------------------
A|---3p5--5--5--5--5---3p5--5--5--5--5--5--5--5--5--3--3--3--3--3--3--0--0--0--0--0--0--0--------------
D|-----------------------------------------------------------------------------------------------------

Lead:
E|-----------------------------------------------------------------------------------------------------
B|-----------------------------------------------------------------------------------------------------
G|-----------------------------------------------------------------------------------------------------
D|---5p7--7--7--7--7---5p7--7--7--7--7--7--7--7--7---7p8--8--8--8--8---7p8--8--8--8--8--8--8--8--8-----
A|-----------------------------------------------------------------------------------------------------
D|-----------------------------------------------------------------------------------------------------

E|-----------------------------------------------------------------------------------------------------
B|-----------------------------------------------------------------------------------------------------
G|-----------------------------------------------------------------------------------------------------
D|---5p7--7--7--7--7---5p7--7--7--7--7--7--7--7--7--5--5--5--5--5--5--2--2--2--2--2--2--2--------------
A|-----------------------------------------------------------------------------------------------------
D|-----------------------------------------------------------------------------------------------------

chorus: x4                                           Keep on the first fret and bend to half step.
E|-----------------------------------------------------------------------------------------------------
B|-----------------------------------------------------------------------------------------------------
G|-----------------------------------------------------------------------------------------------------
D|-----------------------------------------------------------------------------------------------------
A|--0-----0-----5--------------5--5-----5-----5--------------------------------------------------------
D|--0-----0--------3--0--0--3------------------------0b1--1--1--1--1--1--1---1b2--2--2--2--2--2--2--2--

E|--
B|--
G|--
D|--
A|--
D|--

E|--
B|--
G|--
D|--
A|--
D|--

Paste any tab in acousterr's tab maker and we'll play it !!!
Now supports capo and sound effects for vibrato/pull-off/hammer/bends/mutes etc !!! Checkout help section
tabs and chords, guitar tabs, music transcription, music technology, deep learning, music information retrieval, transcribe into tabs & chords, chordify, music renditions, songsterr, reverbnation, tabulature, bollywood chords, ultimate guitar, yousician, guitar lessons, acoustic guitar, electric guitar, guitar tuner, 911 tabs