Mr Crowley - Guitar Tabs

(/) Slide Up  (\) Slide Down  (h) Hammer On  (p) Pull Off  (b) Bend (r) Release (v) Vibrato (x) Muted

Tabs for Song : 
BPM : 100

Song lyrics here 
E|--------------------------------------------------------------------------------------------------------
B|--------------------------------------------------------------------------------------------------------
G|-----------------------------------------------------------------7--9-----------------------------------
D|-----------5--7--------7--5-----5--7--9--10-------10-9--7--9--10-------9-----7--8-----------------7--7--
A|--5--7--8--------7-----------8--------------10----------------------------7--------8--10-8--7--8--------
E|--------------------5--------------------------8-----------------------------------------------------5--

E|-----------------------------------------------------------------------------------------------------------
B|-----------------------------------------------------------------------------------------------------------
G|-----------------------------------------------------------------------7--9--------------------------------
D|-----------------5--7--------7--5-----5--7--9--10-------10-9--7--9--10-------9-----7--8-----------------7--
A|--8--7--5--7--8--------7-----------8--------------10----------------------------7--------8--10-8--7--8-----
E|--------------------------5--------------------------8-----------------------------------------------------


B|--
G|--
D|--
A|--
E|--

E|--
B|--
G|--
D|--
A|--
E|--

Song lyrics here 
E|--
B|--
G|--
D|--
A|--
E|--

Use manual mode to free up cursor. Paste any tab in acousterr tab maker and we'll play it !!!











About Mr. Crowley : The song was written by Osbourne, guitarist Randy Rhoads, and bass guitarist/lyricist Bob Daisley . It was first released on Osbourne's debut solo album Blizzard of Ozz in September 1980 in the United Kingdom . The guitar solo by Randy Rhoads became one of the most known in heavy metal . It was ranked 28th place in the list of the best guitar solos by the readers of Guitar World . The song was ranked the 23rd greatest heavy metal song of all time . The song ranked the It was released in 1980. It was released as part of album Blizzard of Ozz. The genre is heavy metal. The track was release in 1980. Mr. Crowley has a significant contribution from artist(s) Ozzy Osbourne,Aleister Crowley,Osbourne,Randy Rhoads,Bob Daisley. It is related to the album(s) - Blizzard of Ozz.

About Ozzy Osbourne - John Michael "Ozzy" Osbourne is an English singer, songwriter, actor and television personality . He rose to prominence during the 1970s as the lead vocalist of the heavy metal band Black Sabbath . Osbourne's total album sales from his years in Black Sabbath, combined with his solo work is over 100 million . He was inducted into the Rock and Roll Hall of Fame as a member of the band . Osbourne is a native of Birmingham, is known for his Brummie accent . Osbourne co-stars with Jack and Kelly in Ozzy & Jack's World Detour . Osbourne appeared as himself in the MTV reality show The Osbournes . Ozzy Osbourne had an affiliation to band(s) - Black Sabbath. Ozzy Osbourne's music is influenced by genre(s) - heavy metal.

About Blizzard of Ozz : Blizzard of Ozz is the debut studio album by British heavy metal vocalist Ozzy Osbourne . It was released on 20 September 1980 in the UK and on 27 March 1981 in the US . The album was Osbourne's first release following his firing from Black Sabbath in 1979 . In 2017 Rolling Stone's list of "100 Greatest Metal Albums of All Time" Much of the album was written by Randy Rhoads, bassist Bob Daisley and Ozzy Osbourne . Barry Screnage was a friend of Osbourne's named as the group's drummer . He was not involved in the songwriting process . The first track written for the album was "Goodbye to Romance" Osbourne has stated that the song was his way of saying goodbye to his former band Black Sabbath . It had a contribution from notable artists like Ozzy Osbourne,Randy Rhoads. Its music is influenced by genres - heavy metal hard rock.

tabs and chords, guitar tabs, music transcription, music technology, deep learning, music information retrieval, transcribe into tabs & chords, chordify, music renditions, songsterr, reverbnation, tabulature, bollywood chords, ultimate guitar, yousician, guitar lessons, acoustic guitar, electric guitar, guitar tuner, 911 tabs