Guitar Tabs for Movie Themes - Harry Potter

Movie Themes - Harry Potter

Main Theme

1st Part
E|-----0--3--2--0--7--5--2--0--3--2-----1-----
B|--0--------------------------------3-----0--
G|--------------------------------------------
D|--------------------------------------------
A|--------------------------------------------
E|--------------------------------------------

2nd Part
E|-----0--3--2--0--7--10-9--8--5--8--7--6-----3--0--
B|--0--------------------------------------0--------
G|--------------------------------------------------
D|--------------------------------------------------
A|--------------------------------------------------
E|--------------------------------------------------

3rd Part
E|-----7-----7-----8--7--6-----6--7-----------3--0--
B|--8-----8-----8--------------------8--5--0--------
G|--------------------------------------------------
D|--------------------------------------------------
A|--------------------------------------------------
E|--------------------------------------------------

4th Part  
E|-----7-----7-----10-9--8--5--8--7--6-----3--0--
B|--8-----8-----8-----------------------0--------
G|-----------------------------------------------
D|-----------------------------------------------
A|-----------------------------------------------
E|-----------------------------------------------

tabs and chords, guitar tabs, music transcription, music technology, deep learning, music information retrieval, transcribe into tabs & chords, chordify, music renditions, songsterr, reverbnation, tabulature, bollywood chords, ultimate guitar, yousician, guitar lessons, acoustic guitar, electric guitar, guitar tuner, 911 tabs