Guitar Tabs for Mother 2 - Eight Melodies

Tabs For Song : Mother 2 - Eight Melodies

E|-----------------------------------------------------------------------------------------
B|--------------------15----------------------------------------------15-14----14-15-15----
G|-----12-14-16----16----14----14-16-12-------------12-16-14-12----16----------------------
D|--14-------------------------------------------------------------------------------------
A|-----------------------------------------------------------------------------------------
E|-----------------------------------------------------------------------------------------

E|-----------------------------------------------------------------------------------------------------
B|--------------------------------------15----17-------12-10-8-----------------------------------------
G|-----------------16-12-------16-14----------------------------------9--12-------16-14----12-11-12----
D|-----------------------------------------------------------------------------------------------------
A|-----------------------------------------------------------------------------------------------------
E|-----------------------------------------------------------------------------------------------------
tabs and chords, guitar tabs, music transcription, music technology, deep learning, music information retrieval, transcribe into tabs & chords, chordify, music renditions, songsterr, reverbnation, tabulature, bollywood chords, ultimate guitar, yousician, guitar lessons, acoustic guitar, electric guitar, guitar tuner, 911 tabs