Guitar Tabs for Mortal Kombat Theme

(/) Slide Up  (\) Slide Down  (h) Hammer On  (p) Pull Off  (b) Bend (r) Release (v) Vibrato (x) Muted

Tabs & Chords
BPM : 110.0
Check Track 2 for Chord Positions 

    Am                   C                          G                    F                    
E|--------------------0-----------0-----3-----0-----------------------------------------------
B|--------1-----3--------3--1--1-----1-----1-----1--------0-----1-----3--1--------------1-----
G|--2--2-----2-----2--------------------------------0--0-----0-----0--------------2-----------
D|--------------------------------------------------------------------------3--3-----3-----3--
A|--------------------------------------------------------------------------------------------
E|--------------------------------------------------------------------------------------------

          Am                      C                       G                    F              
E|--------------------------0-----------0-----3-----0-----------------------------------------
B|--1--0--------1-----3--------3--1--1-----1-----1-----1--------0-----1-----3--1--------------
G|--------2--2-----2-----2--------------------------------0--0-----0-----0--------------2-----
D|--------------------------------------------------------------------------------3--3-----3--
A|--------------------------------------------------------------------------------------------
E|--------------------------------------------------------------------------------------------

                A                 Am             A                                      Am    
E|--------------------------------------------------------------------------------------------
B|--1-----1--0--------------------------1-----------------------------------------------------
G|--------------2-----2-----2-----2--0-----2-----2-----2--2-----0-----2-----2-----2-----2--0--
D|-----3-----------------------------------------------------------2--------------------------
A|--------------------------------------------------------------------------------------------
E|--------------------------------------------------------------------------------------------

             A                                         Am                   A                 
E|--------------------------------------------------------------------------------------------
B|--1--------------------------------------------------------1--------------------------------
G|-----2-----2-----2--2--2--2--2--2-----2-----2--2-----2--0-----2-----2-----2-----2--0-----2--
D|--------------------------------------------------------------------------------------2-----
A|--------------------------------------------------------------------------------------------
E|--------------------------------------------------------------------------------------------

             Am                      A                                Am                A     
E|--------------------------------------------------------------------------------------------
B|--------------------1--------------------------------------------------------1--------------
G|--2-----2--2-----0-----2-----2-----2--2--2--2--2-----2-----2-----2--2-----0-----2-----2--2--
D|--------------------------------------------------------------------------------------------
A|--------------------------------------------------------------------------------------------
E|--------------------------------------------------------------------------------------------

                                  Am             A                       Am                   
E|--------------------------------------------------------------------------0-----------------
B|--------------------------------------1-----------------------------------------1-----------
G|-----2-----0-----2--2-----2-----2--0-----2-----2-----2--2--2--2--2-----2-----2-----2--3--2--
D|--------------2-----------------------------------------------------------------------------
A|--------------------------------------------------------------------------------------------
E|--------------------------------------------------------------------------------------------

    F                                                                 Am                      
E|-----------------0--------------------------------0--------------------------------0--------
B|--1--------------------1-----------1--------------------1-----------1--------------------1--
G|-----2--3--0--2-----2-----2--3--2-----2--3--0--2-----2-----2--3--2-----2--3--0--2-----2-----
D|--------------------------------------------------------------------------------------------
A|--------------------------------------------------------------------------------------------
E|--------------------------------------------------------------------------------------------

    C           Am                                     F                       Am             
E|-----------------------0--------------------------------0--------------------------------0--
B|-----------------------------1-----------1--------------------1-----------1-----------------
G|--0--0--0--2--2-----2-----2-----2--3--2-----2--3--0--2-----2-----2--3--2-----2--3--0--2-----
D|--------------------------------------------------------------------------------------------
A|--------------------------------------------------------------------------------------------
E|--------------------------------------------------------------------------------------------

                                           C        Am                         D     C        
E|--------------------------------0--------------------------------------------0-----------0--
B|-----1-----------1--------------------1--------------------------1-----3--------3--1--1-----
G|--2-----2--3--2-----2--3--0--2-----2-----0--0--0--2--2-----2--2-----2-----2-----------------
D|--------------------------------------------------------------------------------------------
A|--------------------------------------------------------------------------------------------
E|--------------------------------------------------------------------------------------------

                      G                 F                             Am                   C  
E|--0--3-----0-----------------------------------------------------------------------0--------
B|--------1-----1--------0-----1-----3--1--------------1-----1--0--------1-----3--------3--1--
G|-----------------0--0-----0-----0--------------2-----------------2--2-----2-----2-----------
D|-----------------------------------------3--3-----3-----3-----------------------------------
A|--------------------------------------------------------------------------------------------
E|--------------------------------------------------------------------------------------------

                            G                 F                       B  
E|-----0-----3-----0-----------------------------------------------------
B|--1-----1-----1-----1--------0-----1-----3--1--------------1-----1--0--
G|-----------------------0--0-----0-----0--------------2-----------------
D|-----------------------------------------------3--3-----3-----3--------
A|-----------------------------------------------------------------------
E|-----------------------------------------------------------------------

Guitar Tabs for Mortal Kombat Theme






    Am                   C                          G                    F                    
E|--0--------------------0--------------------------3--------------------1--------------------
B|--1--------------------1--------------------------3--------------------1--------------------
G|--2--------------------0--------------------------4--------------------2--------------------
D|--2--------------------2--------------------------5--------------------3--------------------
A|--0--------------------3--------------------------5--------------------3--------------------
E|--------------------------------------------------3--------------------1--------------------

          Am                      C                       G                    F              
E|--------0-----------------------0-----------------------3--------------------1--------------
B|--------1-----------------------1-----------------------3--------------------1--------------
G|--------2-----------------------0-----------------------4--------------------2--------------
D|--------2-----------------------2-----------------------5--------------------3--------------
A|--------0-----------------------3-----------------------5--------------------3--------------
E|--------------------------------------------------------3--------------------1--------------

                A                 Am             A                                      Am    
E|--------------0-----------------0--------------0--------------------------------------0-----
B|--------------2-----------------1--------------2--------------------------------------1-----
G|--------------2-----------------2--------------2--------------------------------------2-----
D|--------------2-----------------2--------------2--------------------------------------2-----
A|--------------0-----------------0--------------0--------------------------------------0-----
E|--------------------------------------------------------------------------------------------

             A                                         Am                   A                 
E|-----------0-----------------------------------------0--------------------0-----------------
B|-----------2-----------------------------------------1--------------------2-----------------
G|-----------2-----------------------------------------2--------------------2-----------------
D|-----------2-----------------------------------------2--------------------2-----------------
A|-----------0-----------------------------------------0--------------------0-----------------
E|--------------------------------------------------------------------------------------------

             Am                      A                                Am                A     
E|-----------0-----------------------0--------------------------------0-----------------0-----
B|-----------1-----------------------2--------------------------------1-----------------2-----
G|-----------2-----------------------2--------------------------------2-----------------2-----
D|-----------2-----------------------2--------------------------------2-----------------2-----
A|-----------0-----------------------0--------------------------------0-----------------0-----
E|--------------------------------------------------------------------------------------------

                                  Am             A                       Am                   
E|--------------------------------0--------------0-----------------------0--------------------
B|--------------------------------1--------------2-----------------------1--------------------
G|--------------------------------2--------------2-----------------------2--------------------
D|--------------------------------2--------------2-----------------------2--------------------
A|--------------------------------0--------------0-----------------------0--------------------
E|--------------------------------------------------------------------------------------------

    F                                                                 Am                      
E|--1-----------------------------------------------------------------0-----------------------
B|--1-----------------------------------------------------------------1-----------------------
G|--2-----------------------------------------------------------------2-----------------------
D|--3-----------------------------------------------------------------2-----------------------
A|--3-----------------------------------------------------------------0-----------------------
E|--1-----------------------------------------------------------------------------------------

    C           Am                                     F                       Am             
E|--0-----------0--------------------------------------1-----------------------0--------------
B|--1-----------1--------------------------------------1-----------------------1--------------
G|--0-----------2--------------------------------------2-----------------------2--------------
D|--2-----------2--------------------------------------3-----------------------2--------------
A|--3-----------0--------------------------------------3-----------------------0--------------
E|-----------------------------------------------------1--------------------------------------

                                           C        Am                         D     C        
E|-----------------------------------------0--------0--------------------------2-----0--------
B|-----------------------------------------1--------1--------------------------3-----1--------
G|-----------------------------------------0--------2--------------------------2-----0--------
D|-----------------------------------------2--------2--------------------------0-----2--------
A|-----------------------------------------3--------0--------------------------------3--------
E|--------------------------------------------------------------------------------------------

                      G                 F                             Am                   C  
E|--------------------3-----------------1-----------------------------0--------------------0--
B|--------------------3-----------------1-----------------------------1--------------------1--
G|--------------------4-----------------2-----------------------------2--------------------0--
D|--------------------5-----------------3-----------------------------2--------------------2--
A|--------------------5-----------------3-----------------------------0--------------------3--
E|--------------------3-----------------1-----------------------------------------------------

                            G                 F                       B  
E|--------------------------3-----------------1-----------------------2--
B|--------------------------3-----------------1-----------------------4--
G|--------------------------4-----------------2-----------------------4--
D|--------------------------5-----------------3-----------------------4--
A|--------------------------5-----------------3-----------------------2--
E|--------------------------3-----------------1--------------------------

tabs and chords, guitar tabs, music transcription, music technology, deep learning, music information retrieval, transcribe into tabs & chords, chordify, music renditions, songsterr, reverbnation, tabulature, bollywood chords, ultimate guitar, yousician, guitar lessons, acoustic guitar, electric guitar, guitar tuner, 911 tabs