Guitar Tabs for Moonlight Densetsu

(/) Slide Up  (\) Slide Down  (h) Hammer On  (p) Pull Off  (b) Bend (r) Release (v) Vibrato (x) Muted

Tabs for Song : 
BPM : 200

Song lyrics here 
E|--------------------------4--3--
B|-----------4--3-----0-----------
G|-----0-----------3--------------
D|--4-----------------------------
A|--------------------------------
E|--------------------------------

Song lyrics here 
E|-----------3--3--1-----1--------1-----------1--4--4--6-----4--3--1-----3--
B|-----1--4-----------------4--3--------0--3--------------------------4-----
G|--0-----------------------------------------------------------------------
D|--------------------------------------------------------------------------
A|--------------------------------------------------------------------------
E|--------------------------------------------------------------------------

E|--------1--3--3--8--7-----3--7--6--4-----4--3--1--3--1-----------
B|-----4--------------------------------------------------4--3--1--
G|--0--------------------------------------------------------------
D|-----------------------------------------------------------------
A|-----------------------------------------------------------------
E|-----------------------------------------------------------------

E|-----------3--3--1-----1-----------1--------------1--1-----------------------
B|-----1--4-----------------4--4--3-----------0--3--------4-----4--3--1--4-----
G|--0--------------------------------------0-----------------------------------
D|-----------------------------------------------------------------------------
A|-----------------------------------------------------------------------------
E|-----------------------------------------------------------------------------

E|-----------3--3--1-----1-----------1--------------1--3--1-----------
B|-----1--4-----------------4--4--3-----------0--3-----------4--3--4--
G|--0--------------------------------------0--------------------------
D|--------------------------------------------------------------------
A|--------------------------------------------------------------------
E|--------------------------------------------------------------------

E|-----------3--3--1-----1--------1--------------1--1--1--------------
B|-----1--4-----------------4--3-----------0--3-----------4--3--1--4--
G|--0-----------------------------------0-----------------------------
D|--------------------------------------------------------------------
A|--------------------------------------------------------------------
E|--------------------------------------------------------------------

E|-----------3--3--1-----1--3--3--6--4-----4--3--1--3--1--------------4--6--8--8--6--4--3--1-----1--3--
B|-----1--4-----------------------------------------------4--3--1-----------------------------4--------
G|--0--------------------------------------------------------------------------------------------------
D|-----------------------------------------------------------------------------------------------------
A|-----------------------------------------------------------------------------------------------------
E|-----------------------------------------------------------------------------------------------------

E|--4-----6--8--8--8--6-----4--3-----------------3--3--1-----1-----------1--
B|-----------------------------------------1--4-----------------4--4--3-----
G|--------------------------------------0-----------------------------------
D|--------------------------------------------------------------------------
A|--------------------------------------------------------------------------
E|--------------------------------------------------------------------------

E|--------------1--3--1--------------------------3--3--1-----1--3--3--6--4-----4--3--1--3--1--
B|--------0--3-----------4--3--1--4--------1--4-----------------------------------------------
G|-----0--------------------------------0-----------------------------------------------------
D|--------------------------------------------------------------------------------------------
A|--------------------------------------------------------------------------------------------
E|--------------------------------------------------------------------------------------------

E|--------------3--3--1--3--1-----------3--3--1--3--1-----------
B|--4--3--1--------------------4--3--1-----------------4--3--1--
G|--------------------------------------------------------------
D|--------------------------------------------------------------
A|--------------------------------------------------------------
E|--------------------------------------------------------------

Use manual mode to free up cursor. Paste any tab in acousterr tab maker and we'll play it !!!
tabs and chords, guitar tabs, music transcription, music technology, deep learning, music information retrieval, transcribe into tabs & chords, chordify, music renditions, songsterr, reverbnation, tabulature, bollywood chords, ultimate guitar, yousician, guitar lessons, acoustic guitar, electric guitar, guitar tuner, 911 tabs