Guitar Tabs for Mohabbatein Theme

E|------------------------------------8/10-8-----------------------8-----------------
B|-----------10----11-10-11-10-------------------------------8--10----10-------------
G|--10/12----------------------12--------------------8/10----------------10-10/12----
D|-----------------------------------------------------------------------------------
A|-----------------------------------------------------------------------------------
E|-----------------------------------------------------------------------------------

E|---------------------------------------8/10-8-----------------------8-----------------
B|--------------10----11-10-11-10-------------------------------8--10----10-------------
G|-----10/12----------------------12--------------------8/10----------------10-10/12----
D|--------------------------------------------------------------------------------------
A|--------------------------------------------------------------------------------------
E|--------------------------------------------------------------------------------------

E|---8/10-10-10h11p10----------------13-------
B|--------------------13-11----11/13----13----
G|--------------------------------------------
D|--------------------------------------------
A|--------------------------------------------
E|--------------------------------------------

E|---6/8--8--10--8h10p8-----------------------
B|-----------------------11-10-10/11----10----
G|--------------------------------------------
D|--------------------------------------------
A|--------------------------------------------
E|--------------------------------------------

E|------------------------------------8/10-8-----------------------8-----------------
B|-----------10----11-10-11-10-------------------------------8--10----10-------------
G|--10/12----------------------12--------------------8/10----------------10-10/12----
D|-----------------------------------------------------------------------------------
A|-----------------------------------------------------------------------------------
E|-----------------------------------------------------------------------------------
tabs and chords, guitar tabs, music transcription, music technology, deep learning, music information retrieval, transcribe into tabs & chords, chordify, music renditions, songsterr, reverbnation, tabulature, bollywood chords, ultimate guitar, yousician, guitar lessons, acoustic guitar, electric guitar, guitar tuner, 911 tabs