Guitar Tabs for Mist

(/) Slide Up  (\) Slide Down  (h) Hammer On  (p) Pull Off  (b) Bend (r) Release (v) Vibrato (x) Muted

Tabs for Song : 
BPM : 136

Main Melody
E|----------------------------------------------------------------------------------------
B|--------------15-12-------12----12-12----------------------10-12-------10-12----12-10-8--
G|--12-------12----------------------------12----12-------12----------12-------------------
D|-----------------------------------------------------------------------------------------
A|-----------------------------------------------------------------------------------------
E|-----------------------------------------------------------------------------------------

Arp
E|--------------------------------------------------------------------------
B|--------15-------15-------15-------15\------13-------13-------13-------13\
G|--12-12----12-12----12-12----12-12----12-12----12-12----12-12----12-12----
D|--------------------------------------------------------------------------
A|--------------------------------------------------------------------------
E|--------------------------------------------------------------------------

Chords
G5,A5,B5 (repeats throughout song)
tabs and chords, guitar tabs, music transcription, music technology, deep learning, music information retrieval, transcribe into tabs & chords, chordify, music renditions, songsterr, reverbnation, tabulature, bollywood chords, ultimate guitar, yousician, guitar lessons, acoustic guitar, electric guitar, guitar tuner, 911 tabs