Missing The Old Times - Bass Tabs

(/) Slide Up  (\) Slide Down  (h) Hammer On  (p) Pull Off  (b) Bend (r) Release (v) Vibrato (x) Muted

Missing the Old Times

Intro 

G|--------------------------------------------------
D|--------------------------------------------------
A|--------------------------------------------------
E|--0--5--6--5--0--5--6--5--0--5--6--5--0--5--6--5--

2nd part of intro (smashy flamenco sorta bit)
G|-----------------------------------------------------
D|-----------------------------------------------------
A|-----------------------------------------------------
E|--5--5--5--5--5--5--5--5--6--6--6--6--6--6--6--6--0--

(bass doesn't play in the breakdown bit before 'so take me back!')

Chorus 
Missing the old times x 8 (same riff the whole way through for all the parts/keyboard solos/my memory in colours...) feel free to change it up if you want
G|--------------------------------------------------
D|--------------------------------------------------
A|--5--5--------------------5--5--------7--7--7--7--
E|--------5--5--0--0--0--0--------5--5--------------

Outro 
G|--------------------------------------------------
D|--------------------------------------------------
A|--------------------------------------------------
E|--0--5--6--5--0--5--6--5--0--5--6--5--0--5--6--5--

ALL RIGHTS RESERVED - GHOST CARĀ©
tabs and chords, guitar tabs, music transcription, music technology, deep learning, music information retrieval, transcribe into tabs & chords, chordify, music renditions, songsterr, reverbnation, tabulature, bollywood chords, ultimate guitar, yousician, guitar lessons, acoustic guitar, electric guitar, guitar tuner, 911 tabs