Guitar Tabs for Misil 2d Guitar

(/) Slide Up  (\) Slide Down  (h) Hammer On  (p) Pull Off  (b) Bend (r) Release (v) Vibrato (x) Muted

Tabs for Song : 
BPM : 200 

Verso 
E|--------16-------------------------------------------------------------------------------------------------
B|-----------------------------------------------------------------------------------------------------------
G|--15-16----------------13-11----------------4--6--6--4--6--------6-----4-----4--------------------4--------
D|-----------------------------14-------------------------------------6-----------------4--6--4--------------
A|-----------------------------------------------------------------------------------------------------------
E|-----------------------------------------------------------------------------------------------------------
                                     Refugiados...
E|-----------------------------------------------------------------------------------------------------------------
B|-----------------4--7-----------------------------------------------------------------------5--4-----------------
G|--4---4h-6p4-----------4-----------4--6--6--4--6--------6-----4-----4-----------4-----------------6--4-----------
D|---------------6h------------------------------------------6-----------6--4--6-----------------------------------
A|-----------------------------------------------------------------------------------------------------------------
E|-----------------------------------------------------------------------------------------------------------------

                                                                                     Algo OcurriĆ³...
E|-----------------------------------------------------------------------------------------------------------------------
B|-----------------------------------------------------------------------------------7-----7-----7-----5-----5-----5-----
G|--4--6--6--4--6--------6-----4--------4-----------4-----4---4h-6p4-----------------8-----8-----8-----6-----6-----6-----
D|--------------------------6--------------6--4--6---------------------6h------------------------------------------------
A|-----------------------------------------------------------------------------------------------------------------------
E|-----------------------------------------------------------------------------------------------------------------------

E|-----------------------------------------------------------------------------------------------------------------------
B|--------------------------------------------------------7-----7-----7-----5-----5-----5--------------------------------
G|--8-----8-----8--------------------9--9--9--9--8--------8-----8-----8-----6-----6-----6-----8-----8-----8-----------4--
D|--9-----9-----9--------------9--------------------9-----------------------------------------9-----9-----9-----4--6-----
A|-----------------------7--9--------------------------------------------------------------------------------------------
E|-----------------------------------------------------------------------------------------------------------------------


E|-----5-----4/----------------------------------------------------------------------------------------------------------
B|-----5-----4/----------------------------------------------------------------5--4--------------------------------------
G|-----------------------4--6--6--4--6--------6-----4-----4-----------4--------------6--4------4h6--------4--6--6--4--6--
D|-----------------------------------------------6-----------6--4--6-----------------------6-----------------------------
A|-----------------------------------------------------------------------------------------------------------------------
E|-----------------------------------------------------------------------------------------------------------------------

E|--------------------------------------------------------------------------------------------------------------------
B|--5-----5-----4-----------------------------------------7-----7-----7-----5-----5-----5-----------------------------
G|-----------------6--4-----4-----------4--------4--------8-----8-----8-----6-----6-----6-----8-----8-----8-----8-----
D|-----------------------6--------4--6-----6--4-----------------------------------------------9-----9-----9-----9-----
A|--------------------------------------------------------------------------------------------------------------------
E|--------------------------------------------------------------------------------------------------------------------

E|--------------------------------------------------------------------------------------------------------5-----4/-
B|-----------------------------------7-----7-----7-----5-----5-----5-----5--5--5--5--5-----5--5--5--5-----5-----4/-
G|--------------9--9--9--9--8--------8-----8-----8-----6-----6-----6-----4--4--4--4--6-----4--4--4--6--------------
D|--------9--------------------9-----------------------------------------------------------------------------------
A|--7--9-----------------------------------------------------------------------------------------------------------
E|-----------------------------------------------------------------------------------------------------------------
tabs and chords, guitar tabs, music transcription, music technology, deep learning, music information retrieval, transcribe into tabs & chords, chordify, music renditions, songsterr, reverbnation, tabulature, bollywood chords, ultimate guitar, yousician, guitar lessons, acoustic guitar, electric guitar, guitar tuner, 911 tabs