Guitar Tabs for Minor Pentatonic Scales (extension)

(/) Slide Up  (\) Slide Down  (h) Hammer On  (p) Pull Off  (b) Bend (r) Release (v) Vibrato (x) Muted

Tabs for Song : 

E Minor Pentatonic (Extension)
E|--------------------------------------------8--10-12-10-8--------------------------------------------
B|--------------------------------------8--10----------------10-8--------------------------------------
G|-----------------------------7--9--11----------------------------11-9--7-----------------------------
D|-----------------------7--9-----------------------------------------------9--7-----------------------
A|--------------5--7--9-----------------------------------------------------------9--7--5--------------
E|--0--3--5--7-----------------------------------------------------------------------------7--5--3--0--

A Minor Pentatonic (Extension)
E|--------------------------------------8--10-12-10-8--------------------------------------
B|--------------------------------8--10----------------10-8--------------------------------
G|-----------------------5--7--9-----------------------------9--7--5-----------------------
D|-----------------5--7-----------------------------------------------7--5-----------------
A|--------3--5--7-----------------------------------------------------------7--5--3--------
E|--3--5-----------------------------------------------------------------------------5--3--

D Minor Pentatonic (Extension)
E|--------------------------------8--10-8--------------------------------
B|-----------------------6--8--10----------10-8--6-----------------------
G|-----------------5--7-----------------------------7--5-----------------
D|--------3--5--7-----------------------------------------7--5--3--------
A|--3--5-----------------------------------------------------------5--3--
E|-----------------------------------------------------------------------

C Minor Pentatonic (Extension)
E|--------------------------------------11-13-15-13-11-------------------------------------
B|--------------------------------11-13----------------13-11-------------------------------
G|-----------------------8--10-12----------------------------12-10-8-----------------------
D|-----------------8--10----------------------------------------------10-8-----------------
A|--------6--8--10----------------------------------------------------------10-8--6--------
E|--6--8-----------------------------------------------------------------------------8--6--

tabs and chords, guitar tabs, music transcription, music technology, deep learning, music information retrieval, transcribe into tabs & chords, chordify, music renditions, songsterr, reverbnation, tabulature, bollywood chords, ultimate guitar, yousician, guitar lessons, acoustic guitar, electric guitar, guitar tuner, 911 tabs