Bass Tabs for Miami Vibe

(/) Slide Up  (\) Slide Down  (h) Hammer On  (p) Pull Off  (b) Bend (r) Release (v) Vibrato (x) Muted

Tabs for Song : 
BPM : 200

Beggining of the song                             Progression Through Most of song
G|--4--4-----7--4--4-|4-------------------------|-----------------------------------------------------------------|-------------
D|--------5----------|---8--7--7--6--5--5--5--5-|-----------------------------------------------------------------|------------
A|-------------------|--------------------------|------3-----3-----3--4--5-----5-----5--6--7-----7-----7--6--5----|3--3--3--3--
E|-------------------|--------------------------|---------3-----3-----------5-----5-----------7-----7-----------5-|------------

Reggae Part at the end(Feel this part out since Im not exact)
G|-------------------------------------|-----------------------------------|-----------------------------------|-----------------------------------|---------------
D|-------------------------------------|-----------------------------------|-----------------------------------|-----------------------------------|---------------
A|-----3--3-----3--3-----3--3-----3--3-|---5--5-----5--5-----5--5-----5--5-|---7--7-----7--7-----7--7-----7--7-|---5--5-----5--5-----5--5-----5--5-|---3--3--3--3--
E|--3--------3--------3--------3-------|5--------5--------5--------5-------|7--------7--------7--------7-------|5--------5--------5--------5-------|3--------------

Use manual mode to free up cursor. Paste any tab in acousterr tab maker and we'll play it !!!
tabs and chords, guitar tabs, music transcription, music technology, deep learning, music information retrieval, transcribe into tabs & chords, chordify, music renditions, songsterr, reverbnation, tabulature, bollywood chords, ultimate guitar, yousician, guitar lessons, acoustic guitar, electric guitar, guitar tuner, 911 tabs