Mey - O.u Model - Guitar Tabs

G√ĚTAR
    
                                                                                                                                                                                                                                                                                                                                                                                                                                                                                                                                                                                                                                                                                                                                                                                                                                                                                                                                                                                                                                                                                                                                                                                              
E|-------------------------------|-----------------------------|
B|--3-----3-----3-----3-----3--4-|3-----3-----3-----3----------|
G|--3-----3-----3-----3-----3--3-|3-----3-----3-----3----------|
D|--5-----5-----5-----5-----5--5-|5-----5-----5-----5----------|
A|-------------------------------|-----------------------------|
E|-------------------------------|-----------------------------|

    
                                                                                                                                                                                                                                                                                                                                                                                                                                                                                                                                                                                                                                                                                                                                                                                                                                                                                                                                                                                                                                                                                                                                                                                              
E|-------------------------------|-----------------------------|
B|--3-----3-----3-----3-----3--4-|3-----3-----3-----3----------|
G|--3-----3-----3-----3-----3--3-|3-----3-----3-----3----------|
D|--5-----5-----5-----5-----5--5-|5-----5-----5-----5----------|
A|-------------------------------|-----------------------------|
E|-------------------------------|-----------------------------|

    
                                                                                                                                                                                                                                                                                                                                                                                                                                                                                                                                                                                                                                                                                                                                                                                                                                                                                                                                                                                                                                                                                                                                                                                              
E|-------------------------------|-----------------------------|
B|--3-----3-----3-----3-----3--3-|3-----3-----3-----3-----3--3-|
G|--3-----3-----3-----3-----3--3-|2-----2-----2-----2-----2--2-|
D|--5-----5-----5-----5-----5--5-|-----------------------------|
A|-------------------------------|-----------------------------|
E|-------------------------------|-----------------------------|

    
                                                                                                                                                                                                                                                                                                                                                                                                                                                                                                                                                                                                                                                                                                                                                                                                                                                                                                                                                                                                                                                                                                                                                                                              
E|-------------------------------|-----------------------------|
B|--3-----3-----3-----3-----3--4-|3-----3-----3-----3----------|
G|--3-----3-----3-----3-----3--3-|3-----3-----3-----3----------|
D|--5-----5-----5-----5-----5--5-|5-----5-----5-----5----------|
A|-------------------------------|-----------------------------|
E|-------------------------------|-----------------------------|

    
                                                                                                                                                                                                                                                                                                                                                                                                                                                                                                                                                                                                                                                                                                                                                                                                                                                                                                                                                                                                                                                                                                                                                                                              
E|-------------------------------|-----------------------------|
B|--3-----3-----3-----3-----3--3-|3-----3-----3-----3-----3--3-|
G|--3-----3-----3-----3-----3--3-|2-----2-----2-----2-----2--2-|
D|--5-----5-----5-----5-----5--5-|-----------------------------|
A|-------------------------------|-----------------------------|
E|-------------------------------|-----------------------------|

    
                                                                                                                                                                                                                                                                                                                                                                                                                                                                                                                                                                                                                                                                                                                                                                                                                                                                                                                                                                                                                                                                                                                                                                                              
E|-------------------------------|-----------------------------|
B|--3-----3-----3-----3-----3--4-|3-----3-----3-----3----------|
G|--3-----3-----3-----3-----3--3-|3-----3-----3-----3----------|
D|--5-----5-----5-----5-----5--5-|5-----5-----5-----5----------|
A|-------------------------------|-----------------------------|
E|-------------------------------|-----------------------------|

    
    Gm                                                                                                                                                                                                                                                                                                                                                                                                                                                                                                                                                                                             Gm                                                                                                                                                                                                                                                                                                                                                                                                                                                                                                                                                                                             
E|--3----------------------|3-----3----------------|
B|--3----------------------|4-----3----------------|
G|--3----------------------|5-----3----------------|
D|--5----------------------|5-----5----------------|
A|--5----------------------|3-----5----------------|
E|--3----------------------|------3----------------|

    
    Cm                                                                                                                                                                                                                                                                                                                                                                                                                                                                                                                                                                                             Cm                                                                                                                                                                                                                                                                                                                                                                                                                                                                                                                                                                                             
E|--3----------------------|1-----2----------------|
B|--4----------------------|3-----3----------------|
G|--5----------------------|3-----2----------------|
D|--5----------------------|3-----0----------------|
A|--3----------------------|1----------------------|
E|-------------------------|-----------------------|

    
    D#                                                                                                                                                                                                                                                                                                                                                                                                                                                                                                                                                                                             D#                                                                                                                                                                                                                                                                                                                                                                                                                                                                                                                                                                                             
E|--6----------------------|5----------------------|
B|--8----------------------|7----------------------|
G|--8----------------------|7----------------------|
D|--8----------------------|7----------------------|
A|--6----------------------|5----------------------|
E|-------------------------|-----------------------|

    
                                                                                                                                                                                                                                                                                                                                                                                                                                                                                                                                                                                                                                                                                                                                                                                                                                                                                                                                                                                                                                                                                                                                                                                              
E|-------------------------|-----------------------|
B|-------------------------|-----------------------|
G|-------------------------|-----------------------|
D|-------------------------|0----------------------|
A|-----------0--------1----|---------3--------1----|
E|--3----------------------|-----------------------|

    
    Gm                                                                                                                                                                                                                                                                                                                                                                                                                                                                                                                                                                                             Gm                                                                                                                                                                                                                                                                                                                                                                                                                                                                                                                                                                                             
E|--3----------------------|3-----3----------------|
B|--3----------------------|4-----3----------------|
G|--3----------------------|5-----3----------------|
D|--5----------------------|5-----5----------------|
A|--5----------------------|3-----5----------------|
E|--3----------------------|------3----------------|

    
    Cm                                                                                                                                                                                                                                                                                                                                                                                                                                                                                                                                                                                             Cm                                                                                                                                                                                                                                                                                                                                                                                                                                                                                                                                                                                             
E|--3----------------------|1-----2----------------|
B|--4----------------------|3-----3----------------|
G|--5----------------------|3-----2----------------|
D|--5----------------------|3-----0----------------|
A|--3----------------------|1----------------------|
E|-------------------------|-----------------------|

    
    D#                                                                                                                                                                                                                                                                                                                                                                                                                                                                                                                                                                                             D#                                                                                                                                                                                                                                                                                                                                                                                                                                                                                                                                                                                             
E|--6----------------------|5----------------------|
B|--8----------------------|7----------------------|
G|--8----------------------|7----------------------|
D|--8----------------------|7----------------------|
A|--6----------------------|5----------------------|
E|-------------------------|-----------------------|

    
                                                                                                                                                                                                                                                                                                                                                                                                                                                                                                                                                                                                 
E|-------------------------|
B|-------------------------|
G|-------------------------|
D|-------------------------|
A|-----------0--------1----|
E|--3----------------------|

    
                                                                                                                                                                                                                                                                                                                                                                                                                                                                                                                                                                                                                                                                                                                                                                                                                                                                                                                                                                                                                                                                                                                                                                                              
E|-------------------------|-----------------------------|
B|-------------------------|-----------------------------|
G|-------------------------|-----------------------------|
D|-------------------------|-----------------------------|
A|-------------------------|5-----5-----5-----5-----5----|
E|--3----------------------|3-----3-----3-----3-----3----|

    
                                                                                                                                                                                                                                                                                                                                                                                                                                                                                                                                                                                                                                                                                                                                                                                                                                                                                                                                                                                                                                                                                                                                                                                              
E|-------------------------------|-----------------------------|
B|-------------------------------|-----------------------------|
G|-------------------------------|-----------------------------|
D|--7-----7-----7-----7-----7----|-----------------------------|
A|--5-----5-----5-----5-----5----|5-----5-----5-----5-----5----|
E|-------------------------------|3-----3-----3-----3-----3----|

    
                                                                                                                                                                                                                                                                                                                                                                                                                                                                                                                                                                                                                                                                                                                                                                                                                                                                                                                                                                                                                                                                                                                                                                                              
E|-------------------------------|-----------------------------|
B|-------------------------------|-----------------------------|
G|-------------------------------|-----------------------------|
D|--7-----7-----7-----7-----7----|3-----3-----3-----3-----3----|
A|--5-----5-----5-----5-----5----|1-----1-----1-----1-----1----|
E|-------------------------------|-----------------------------|

    
                                                                                                                                                                                                                                                                                                                                                                                                                                                                                                                                                                                                                                                                                                                                                                                                                                                                                                                                                                                                                                                                                                                                                                                              
E|-------------------------------|-----------------------------|
B|-------------------------------|-----------------------------|
G|-------------------------------|-----------------------------|
D|-------------------------------|8-----8-----8-----8-----8----|
A|--3-----3-----3-----3-----3----|6-----6-----6-----6-----6----|
E|--1-----1-----1-----1-----1----|-----------------------------|

    
                                                                                                                                                                                                                                                                                                                                                                                                                                                                                                                                                                                                 
E|-------------------------------|
B|-------------------------------|
G|-------------------------------|
D|--7-----7-----7-----7-----7----|
A|--5-----5-----5-----5-----5----|
E|-------------------------------|

    
                                                                                                                                                                                                                                                                                                                                                                                                                                                                                                                                                                                                                                                                                                                                                                                                                                                                                                                                                                                                                                                                                                                                                                                              
E|-------------------------------|-----------------------------|
B|-------------------------------|-----------------------------|
G|-------------------------------|-----------------------------|
D|-------------------------------|7-----7-----7-----7-----7----|
A|--5-----5-----5-----5-----5----|5-----5-----5-----5-----5----|
E|--3-----3-----3-----3-----3----|-----------------------------|

    
                                                                                                                                                                                                                                                                                                                                                                                                                                                                                                                                                                                                                                                                                                                                                                                                                                                                                                                                                                                                                                                                                                                                                                                              
E|-------------------------------|-----------------------------|
B|-------------------------------|-----------------------------|
G|-------------------------------|-----------------------------|
D|-------------------------------|7-----7-----7-----7-----7----|
A|--5-----5-----5-----5-----5----|5-----5-----5-----5-----5----|
E|--3-----3-----3-----3-----3----|-----------------------------|

    
                                                                                                                                                                                                                                                                                                                                                                                                                                                                                                                                                                                                                                                                                                                                                                                                                                                                                                                                                                                                                                                                                                                                                                                              
E|-------------------------------|-----------------------------|
B|-------------------------------|-----------------------------|
G|-------------------------------|-----------------------------|
D|--3-----3-----3-----3-----3----|-----------------------------|
A|--1-----1-----1-----1-----1----|3-----3-----3-----3-----3----|
E|-------------------------------|1-----1-----1-----1-----1----|

    
                                                                                                                                                                                                                                                                                                                                                                                                                                                                                                                                                                                                                                                                                                                                                                                                                                                                                                                                                                                                                                                                                                                                                                                              
E|-------------------------------|-----------------------------|
B|-------------------------------|-----------------------------|
G|-------------------------------|-----------------------------|
D|--8-----8-----8-----8-----8----|7-----7-----7-----7-----7----|
A|--6-----6-----6-----6-----6----|5-----5-----5-----5-----5----|
E|-------------------------------|-----------------------------|

    
                                                                                                                                                                                                                                                                                                                                                                                                                                                                                                                                                                                                                                                                                                                                                                                                                                                                                                                                                                                                                                                                                                                                                                                              
E|-------------------------------|-----------------------------|
B|-------------------------------|-----------------------------|
G|-------------------------------|-----------------------------|
D|-------------------------------|7-----7-----7-----7-----7----|
A|--5-----5-----5-----5-----5----|5-----5-----5-----5-----5----|
E|--3-----3-----3-----3-----3----|-----------------------------|

    
                                                                                                                                                                                                                                                                                                                                                                                                                                                                                                                                                                                                                                                                                                                                                                                                                                                                                                                                                                                                                                                                                                                                                                                              
E|-------------------------------|-----------------------|
B|-------------------------------|-----------------------|
G|-------------------------------|-----------------------|
D|-------------------------------|-----------------------|
A|--5-----5-----5-----5-----5----|5----------------------|
E|--3-----3-----3-----3-----3----|3----------------------|

    
                                                                                                                                                                                                                                                                                                                                                                                                                                                                                                                                                                                                                                                                                                                                                                                                                                                                                                                                                                                                                                                                                                                                                                                              
E|-------------------------|-----------------------|
B|-------------------------|-----------------------|
G|-------------------------|-----------------------|
D|-------------------------|7----------------------|
A|--5----------------------|5----------------------|
E|--3----------------------|-----------------------|

    
                                                                                                                                                                                                                                                                                                                                                                                                                                                                                                                                                                                                                                                                                                                                                                                                                                                                                                                                                                                                                                                                                                                                                                                              
E|-------------------------|-----------------------|
B|-------------------------|-----------------------|
G|-------------------------|-----------------------|
D|-------------------------|7----------------------|
A|--5----------------------|5----------------------|
E|--3----------------------|-----------------------|

    
                                                                                                                                                                                                                                                                                                                                                                                                                                                                                                                                                                                                                                                                                                                                                                                                                                                                                                                                                                                                                                                                                                                                                                                              
E|-------------------------|-----------------------|
B|-------------------------|-----------------------|
G|-------------------------|-----------------------|
D|--3-----3-----3-----3----|-----------------------|
A|-----1-----1-----1-----1-|3-----3-----3-----3----|
E|-------------------------|---1-----1-----1-----1-|

    
                                                                                                                                                                                                                                                                                                                                                                                                                                                                                                                                                                                                                                                                                                                                                                                                                                                                                                                                                                                                                                                                                                                                                                                              
E|-------------------------|-----------------------|
B|-------------------------|-----------------------|
G|-------------------------|-----------------------|
D|--8-----8-----8-----8----|7-----7-----7-----7----|
A|-----6-----6-----6-----6-|---5-----5-----5-----5-|
E|-------------------------|-----------------------|

    
                                                                                                                                                                                                                                                                                                                                                                                                                                                                                                                                                                                                 
E|-------------------------------|
B|-------------------------------|
G|-------------------------------|
D|-------------------------------|
A|--5-----5-----5-----5-----5----|
E|--3-----3-----3-----3-----3----|
tabs and chords, guitar tabs, music transcription, music technology, deep learning, music information retrieval, transcribe into tabs & chords, chordify, music renditions, songsterr, reverbnation, tabulature, bollywood chords, ultimate guitar, yousician, guitar lessons, acoustic guitar, electric guitar, guitar tuner, 911 tabs