Bass Tabs for Metallica - For Whom The Bell Tolls

(/) Slide Up  (\) Slide Down  (h) Hammer On  (p) Pull Off  (b) Bend (r) Release (v) Vibrato (x) Muted

Tabs for Song : 

Song lyrics here
G|--------------------------19-18-17-16----19p16-------19-------------------
D|-----------------------------------------------17-16----------------------
A|--------------------------------------------------------17-16-------------
E|--2--2--------2--2-----------------------------------------------------0--

G|--------19-18-17-16----19p16-------19-------------------
D|-----------------------------17-16----------------------
A|--------------------------------------17-16-------------
E|-----------------------------------------------------0--

G|--------19-18-17-16----19p16-------19-------------------
D|-----------------------------17-16----------------------
A|--------------------------------------17-16-------------
E|-----------------------------------------------------0--

G|--------19-18-17-16----19p16-------19-------------------
D|-----------------------------17-16----------------------
A|--------------------------------------17-16-------------
E|-----------------------------------------------------0--

G|--------19-18-17-16----19p16-------19-------------------------------
D|-----------------------------17-16----17-16h17p16h17p16h17p16-------
A|--------------------------------------------------------------------
E|-----------------------------------------------------------------0--

G|--------19-18-17-16----19p16-------19-------------------
D|-----------------------------17-16----------------------
A|--------------------------------------17-16-------------
E|-----------------------------------------------------0--

G|--------19-18-17-16----19p16-------19-------------------
D|-----------------------------17-16----------------------
A|--------------------------------------17-16-------------
E|-----------------------------------------------------0--

G|--------19-18-17-16----19p16-------19-------------------
D|-----------------------------17-16----------------------
A|--------------------------------------17-16-------------
E|-----------------------------------------------------0--

G|--------19-18-17-16----19p16-------19-------------------------
D|-----------------------------17-16----17-16h17p16h17p16h17p16-
A|--------------------------------------------------------------
E|--------------------------------------------------------------

G|--------19-18-17-16----19p16-------19-------------------
D|-----------------------------17-16----------------------
A|--------------------------------------17-16-------------
E|-----------------------------------------------------0--

G|--------19-19-18-18-17-17-16----19p16-------19-------------------
D|--------------------------------------17-16----------------------
A|-----------------------------------------------17-16-------------
E|--------------------------------------------------------------0--

G|--------19-18-17-16----19p16-------19-------------------
D|-----------------------------17-16----------------------
A|--------------------------------------17-16-------------
E|-----------------------------------------------------0--

G|--------19-18-17-16----19p16-------19----------------------------
D|-----------------------------17-16-------------------------------
A|--------------------------------------17-16h17p16h17p16h17p16----
E|-----------------------------------------------------------------

G|--------------------------------------------------
D|--------------------------------------------------
A|-----------------------------------------------0--
E|--0--3--2--1--0--3--2--1--0--3--2--1--0--2--3-----

G|--------------------------------------------------
D|--------------------------------------------------
A|-----------------------------------------------2--
E|--0--3--2--1--0--3--2--1--0--3--2--1--0--2--3-----

G|--------------------------------------------------
D|--------------------------------------------------
A|-----------------------------------------------0--
E|--0--3--2--1--0--3--2--1--0--3--2--1--0--2--3-----

G|--------------------------------------------------
D|--------------------------------------------------
A|-----------------------------------------------2--
E|--0--3--2--1--0--3--2--1--0--3--2--1--0--2--3-----

G|--------------------------------------------------
D|--------------------------------------------------
A|-----------------------------------------------0--
E|--0--3--2--1--0--3--2--1--0--3--2--1--0--2--3-----

G|--------------------------------------------------
D|--------------------------------------------------
A|-----------------------------------------------2--
E|--0--3--2--1--0--3--2--1--0--3--2--1--0--2--3-----

G|--------------------------------------------------
D|--------------------------------------------------
A|-----------------------------------------------0--
E|--0--3--2--1--0--3--2--1--0--3--2--1--0--2--3-----

G|--------------------------------------------------
D|--------------------------------------------------
A|-----------------------------------------------2--
E|--0--3--2--1--0--3--2--1--0--3--2--1--0--2--3-----

G|--------------------------------------------------------------------------------------------------------
D|--------9-----------9-----------9-----------9-----------9-----------9-----------9-----------9-----------
A|--------7-----------7-----------7-----------7-----------7-----------7-----------7-----------7-----------
E|--0-----------0-----------0-----------0-----------0-----------0-----------0-----------0-----------------

G|-----------------------------------------------------------------------------------------------
D|--------------------------------------------------------9-----------9-----------9-----------9--
A|--------------------------------------------------------7-----------7-----------7-----------7--
E|--3-----------------------3--------------------12\0-----------0-----------0-----------0--------

G|---------------------------------5\------------
D|---------------------------------------------7\
A|--------------------------3--------------------
E|--3--3--3-----3--3--3-----------------5--------

G|--------------------------------------------------------
D|--------------------------------------------------------
A|--------------------------------------------------------
E|--0--0--0--3-----0--0--0--5-----0--0--0--3-----6-----2--

G|-----------------------------------------------------------------
D|-----------------------------------------------------------------
A|-----------------------------------------------------------------
E|--0--0--0--3-----0--0--0--5-----0--0--0--3--0--0--6-----2-----1--





Guitar Tabs for Metallica - For Whom The Bell Tolls





E|--------------------------
B|--------------------------
G|--------------------------
D|--4--4--------4--4-----2--
A|--4--4--------4--4-----2--
E|--2--2--------2--2-----0--




E|--
B|--
G|--
D|--
A|--
E|--




E|--
B|--
G|--
D|--
A|--
E|--




E|--
B|--
G|--
D|--
A|--
E|--




E|--
B|--
G|--
D|--
A|--
E|--




E|--
B|--
G|--
D|--
A|--
E|--




E|--
B|--
G|--
D|--
A|--
E|--




E|--
B|--
G|--
D|--
A|--
E|--




E|--
B|--
G|--
D|--
A|--
E|--




E|--
B|--
G|--
D|--
A|--
E|--




E|--
B|--
G|--
D|--
A|--
E|--




E|--
B|--
G|--
D|--
A|--
E|--




E|--
B|--
G|--
D|--
A|--
E|--

tabs and chords, guitar tabs, music transcription, music technology, deep learning, music information retrieval, transcribe into tabs & chords, chordify, music renditions, songsterr, reverbnation, tabulature, bollywood chords, ultimate guitar, yousician, guitar lessons, acoustic guitar, electric guitar, guitar tuner, 911 tabs