Guitar Tabs for Merelians In E, Op.1

(/) Slide Up  (\) Slide Down  (h) Hammer On  (p) Pull Off  (b) Bend (r) Release (v) Vibrato (x) Muted

Capo on 4th fret

E|--------------------------------------------------------------------------
B|--------------------------------------------------------------------------
G|--------------------------------------------------------------------------
D|--------3--------3--------3--------3--------3--------3--------3--------3--
A|-----5--------5--------5--------5--------5--------5--------5--------5-----
E|--5--------5--------5--------5--------5--------5--------5--------5--------


E|--------------------------------------
B|--------------------------------------
G|--------------------------------------
D|--------1--------1--------1--------1--
A|-----3--------3--------3--------3-----
E|--3--------3--------3--------3--------


E|--------------------------------------------------------------------------
B|--------------------------------------------------------------------------
G|-----------0-----------------0-----------------0--------3--------2--------
D|--------2-----2-----------2-----2-----------2-----2-----------------------
A|-----2-----------2-----2-----------2-----2-----------2--------------------
E|--0-----------------0-----------------0-----------------------------------

E|--------------------------------------------------------------------------
B|--------------------------------------------------------------------------
G|-----------0-----------------0-----------------0--------3--------4--------
D|--------2-----2-----------2-----2-----------2-----2-----------------------
A|-----2-----------2-----2-----------2-----2-----------2--------------------
E|--0-----------------0-----------------0-----------------------------------

E|-----------1-----------------1-----------------1--------3--------1-----------------1---------------1h-3p1-----------------1--------3--------5--------
B|--------3-----3-----------3-----3-----------3-----3-----------------------------3-----3--------------------3-----------3-----3-----------------------
G|-----2-----------2-----2-----------2-----2-----------2-----------------------2-----------2-----2--------------2-----2-----------2--------------------
D|--0-----------------0-----------------0-----------------------------------0-----------------0--------------------0-----------------------------------
A|-----------------------------------------------------------------------------------------------------------------------------------------------------
E|-----------------------------------------------------------------------------------------------------------------------------------------------------

E|--5--------3--------5--3--1-----------5--3--1--3--------5--3--1-----------
B|-----------------------------3-----------------------------------3--------
G|--------------------------------------------------------------------------
D|--3--------0--------3--0--0--0--------3--0--0--0--------3--0--0--0--------
A|--------------------------------------------------------------------------
E|--------------------------------------------------------------------------

E|--5--------3--------5--3--1-----------5--3--1--3--------5--3--1--------
B|-----------------------------3-----------------------------------3-----
G|-----------------------------------------------------------------------
D|--3--------0--------3--0--0--0--------3--0--0--0--------3--0--0--0-----
A|-----------------------------------------------------------------------
E|-----------------------------------------------------------------------

E|-----3-----3--1-----1--------------
B|--3--------------------3-----------
G|-----------------------------------
D|--0--0-----0--0-----0--0-----------
A|-----------------------------------
E|-----------------------------------

E|--0--------
B|--0--------
G|--2--------
D|--4--------
A|--3--------
E|-----------
tabs and chords, guitar tabs, music contests, music covers, songsterr, reverbnation, renditions, tabulature, bollywood chords, ultimate guitar, yousician, guitar lessons, torrins, fender, gibson, acoustic guitar, electric guitar, youtube covers, gootar, guitar tuner, A-Z tabs, 911 tabs