Guitar Tabs for Mera Man

(/) Slide Up  (\) Slide Down  (h) Hammer On  (p) Pull Off  (b) Bend (r) Release (v) Vibrato (x) Muted

Tabs for Song : 

Song lyrics here
E|-----7--------------------5--------------7-----3--7--------10-------------------3--8--
B|--------3--------3--3-----------3-----------0--------0--------3-----3-----------------
G|--------------------------------------------------------------------------------------
D|-----------------0-----0-----0-----------------------------------0-----0--------------
A|--4--------4--4--------------------4--4-----------------4-----------------3--4--------
E|--------------------------------------------------------------------------------------

E|-----3--3-----------2--5-----0--3--2--2--3--8--5--5-----7-----8--------------------
B|--1--------------3--------2--------------------------------3-----------3--0-----0--
G|--------------------------4-----------------------------------------0--------2-----
D|--------------0--------------------------------------0-----------4-----------------
A|-----------3-----------------------------------------------------------------------
E|-----------------------------------------------------------------------------------

E|--------------------------------------------------2--------------------------------------
B|--------3--0-----0-----1--3--1--1--0--0-----0--------2--------------0-----0-----0-----0--
G|-----0--------2--------------------------3-----2--------------2--2-----2-----2-----2-----
D|--0-----------------------------------------------------0--0-----------------------------
A|-----------------------------------------------------------------------------------------
E|--------------------0--------------------------------2--2--------------------------------

E|-----------
B|--0--1--1--
G|-----------
D|-----------
A|-----------
E|-----------

E|--
B|--
G|--
D|--
A|--
E|--

Song lyrics here
E|--
B|--
G|--
D|--
A|--
E|--

Paste any tab in acousterr's tab maker and we'll play it !!!
Now supports capo and sound effects for vibrato/pull-off/hammer/bends/mutes etc !!! Checkout help section
tabs and chords, guitar tabs, music transcription, music technology, deep learning, music information retrieval, transcribe into tabs & chords, chordify, music renditions, songsterr, reverbnation, tabulature, bollywood chords, ultimate guitar, yousician, guitar lessons, acoustic guitar, electric guitar, guitar tuner, 911 tabs