Guitar Tabs for Memory (serah's Theme) - Final Fantasy Xiii-2

(/) Slide Up  (\) Slide Down  (h) Hammer On  (p) Pull Off  (b) Bend (r) Release (v) Vibrato

Tabs for Song : Memory (Serah's theme) - Final Fantasy XII-2

Song lyrics here
E|-----------------------------------------3--------------
B|-----------------------1--3--0--------------------------
G|--2-----------------2--------------0--------------------
D|--3--------------3-----------0--------------------------
A|--3-----------------------------------------------------
E|--1-----------------------------------------------------

E|-----------------------------0--------------------------
B|-----------------------1--3--------1-----1--------------
G|--2-----------------2--------------------2--------------
D|--2--------------2-----------------------2--------------
A|--2--------------------------0-----------0--------------
E|--0-----------------------------------------------------

E|--3--------------3--1--0-----------0-----------
B|--3-----------------------1--3-----------0-----
G|--2--------------------------------------1-----
D|--0--------------------------------------------
A|-----------------------------------------------
E|-----------------------------0-----------------

E|--------------------------------------------------------
B|--------------------------------3-----------------------
G|--0-----2-----------------------2-----------------------
D|--------------3-----------3-----0-----------------------
A|-----------3-----3-----3-----3--0-----------------------
E|--------1-----------1-----------2-----------------------

E|--3-----------------0--1--3--------------------5--3--------1--0-----------------------
B|--------------1--3-----------------------3--5--------------------3--1--0--3-----------
G|--------2-----0-----------------2-----5-----3-----------2-----------1-----------2-----
D|-----3-----3-----------------2-----2--3--------------3-----------------------2-----2--
A|--------------------------0-----------------3-----------------------------0-----------
E|--1-----------0-----------------------3-----------1-----------0-----------------------

E|--------------3-----------------------------8-----8-----------------
B|-----3--5--6--------------1--3--5--6--8-----------7-----------------
G|-----3--3-----------2-----0--------------5--------7-----------------
D|-----------------3-----3--------------------------0-----------------
A|--------3-----------------------------0-----------------------------
E|--3-----------1-----------0-----4-----------------------------------

E|--12-13-12-------------------------------------------------
B|--------10-13----------------------------------------------
G|--------10----12-10-9-----7-----5-----------6--------------
D|--------0--------------------------------------------------
A|--------------------------------6-----------6--------------
E|--------------------0--------------------------------------

E|--6--------------------------------------------8--6--------4--3-----------------------
B|--------------4--6--8--9--11-------------6--8--------------------6--4--3--6-----------
G|--------5-----4-----------------8-----8-----6-----------5-----------4-----------3-----
D|-----6-----6-----------------8-----8--6--------------6-----------------------5-----5--
A|--------------------------------------------6-----------------------------3-----------
E|--4-----------3-----7-----8-----------6-----------4-----------3-----------------------

E|--------------6-----------------------------------11----------------
B|-----6--8--9--------------4--6--8--9--11----------10----------------
G|-----6--------------5-----4-----------------8-----8-----------------
D|-----------------6-----6-----------------8--------------------------
A|--------6-----------------------------------------8-----------------
E|--6-----------4-----------3-----7-----8-----------------------------

E|--------------------------2--------------------------
B|--------6-----8-----9-----2--------------------------
G|--8-----------------------3--------------------------
D|-----7-----------9--------4--------------------------
A|--8--------8--10----------4--------------------------
E|--------------------------2--------------------------

E|-----------------------------6-----------------------
B|-----------6--6--9-----------------4-----------------
G|--8-----8-----------------------3-----3--------------
D|-----8-----------------------------------------------
A|--6--------------6-----------3-----------3-----------
E|-----------------------------------------------------

E|--6-----------------9-----8--------------------------------
B|--------------7-----------------------8--------------------
G|--------8--------------------------8--8--------------------
D|-----8-----8--------------------10----10-------------------
A|--6--------------------------10-------10-------------------
E|--------------------------8-----------8--------------------

tabs and chords, guitar tabs, music contests, music covers, songsterr, reverbnation, renditions, tabulature, bollywood chords, ultimate guitar, yousician, guitar lessons, torrins, fender, gibson, acoustic guitar, electric guitar, youtube covers, gootar, guitar tuner, A-Z tabs, 911 tabs