Ukulele Tabs for Memories (ukulele)

(/) Slide Up  (\) Slide Down  (h) Hammer On  (p) Pull Off  (b) Bend (r) Release (v) Vibrato (x) Muted

Tabs for Song : Memories - Yon Sen


A|--7-----9-----11----9--11-7---6--7-6--------------------------------------
E|--------------------------------------9-----------------------------------
C|-----------------------------------------8-----6---4-6--8--4---6--4\1--4--
G|--------------------------------------------------------------------------

A|-----4--------------------------------------------|
E|--------7--4-----4--------------------------------|
C|--------------4-----6-----3--1-----3--3--4--6-----|
G|--------------------------------------------------|
tabs and chords, guitar tabs, music transcription, music technology, deep learning, music information retrieval, transcribe into tabs & chords, chordify, music renditions, songsterr, reverbnation, tabulature, bollywood chords, ultimate guitar, yousician, guitar lessons, acoustic guitar, electric guitar, guitar tuner, 911 tabs