Memories - Guitar Tabs

(/) Slide Up  (\) Slide Down  (h) Hammer On  (p) Pull Off  (b) Bend (r) Release (v) Vibrato (x) Muted

Tabs for Song : capo on 4th fret
BPM : 200

Song lyrics here 
E|-----3-----2-----3-----2-----3-----3-----3-----2--------------------------2--------------------------------
B|-----3-----3-----5-----3-----5-----3-----5-----3-----3---0h-1h3--0h-1h3---3--0--------0--------0--------0--
G|-----4-----2-----4-----4-----5-----4-----5-----2-----0--------------------2------0h2------0h2------0h2-----
D|--------0-----------------------------------0--------------------0-----------------------------------------
A|--------------------2-----3-----------3---------------------------------------------------2h---------------
E|--3-----------0-----------------3--------------------3-----------------------0-----------------------------

E|--------------------------------------------------------------------------
B|-------------------------------------------------------------------------- 
G|---2p0-----------------------------------------0--------0--------------0--
D|--------2--2--2---2p-0h-2p0--0--0---0h2--2--2-----4--------4--4--4--4-----
A|--------3---------------------------3h---------5--------5-----------------
E|------------------3p------------------------------------------------------

Song lyrics here 
E|--
B|--
G|--
D|--
A|--
E|--

Use manual mode to free up cursor. Paste any tab in acousterr tab maker and we'll play it !!!

About Careless Memories : "Careless Memories" is the second single by Duran Duran, released on 20 April 1981. "Careless Memories" stalled at No. 37 in the UK charts . The band's debut single "Planet Earth" had been a Top 20 hit . It was to herald the release of the debut album Duran EMI decided to let Duran Duran choose their own single releases . The band's first selection was "Girls on Film" and it duly became their first Top 5 hit in the UK . It was released in 1981. It was released as part of album Duran Duran. The genre is new wave synthpop. The track was release in 1981. Careless Memories has a significant contribution from artist(s) Duran Duran.

About Duran Duran (1981 album) : Duran is the debut studio album by English new wave band Duran Duran . It was released Duran Duran reached number three on the UK Albums Chart and remained in the UK top 100 for 118 weeks . The initial US release was unsuccessful, though the album was reissued there in 1983 following the success of the band's second album, Rio . The band was influenced by David Bowie, Roxy Music, Japan, Giorgio Moroder and Chic, to a sound that has been described as "space-age keyboards, post-punk guitars, disco-inspired bass lines and Le Bon's vocal croon" It had a contribution from notable artists like Duran Duran. It had an affiliation to bands - Duran Duran. Its music is influenced by genres - new wave synth-pop dance-rock.

tabs and chords, guitar tabs, music transcription, music technology, deep learning, music information retrieval, transcribe into tabs & chords, chordify, music renditions, songsterr, reverbnation, tabulature, bollywood chords, ultimate guitar, yousician, guitar lessons, acoustic guitar, electric guitar, guitar tuner, 911 tabs