Ukulele Tabs for Medhel An Gwyns (poldark) -- Anne Dudley ~ukulele~

(/) Slide Up  (\) Slide Down  (h) Hammer On  (p) Pull Off  (b) Bend (r) Release (v) Vibrato (x) Muted

Tabs for Song : 

Song lyrics here
A|--1--3--4--6--8--9--8--4--3--1-----1--3--4--6-----6--8--9--8-----8--13-11-9--8--6--6-----8--9--8-----1--3--4--6--4--3--1-----------
E|-----------------------------------------------------------------------------------------------------------------------------------
C|-----------------------------------------------------------------------------------------------------------------------------------
G|-----------------------------------------------------------------------------------------------------------------------------------

A|--1--3--4--6--8--9--8--4--3--1--------1--3--4--6-----6--8--9--8-----8--13-11-9--8--6--6--3--8--9--8--------1--3--4--6--4--3--1-----------
E|-----------4--------------------2-----1--------6-----6--------6-----6--------6-----------4-----------6-----2--------4--------1-----------
C|-----------------------------------------------------6--------5-----5--------6-----------3-----------5-----1--------0--------1-----------
G|--------------------0--------------------------0--------------------6--------6-----------------------6-----3-----------------3-----------

A|--1--3--4--6--8--9--8--4--3--1-----1--3-----4--6-----1--6--8-----9--8-----1--8--13-11-9--8--6--6-----8--9--8--1-----1--1--3--4--3-----3--1-----1--3--1-----------1--4--1-----1-----1--3--1-----------1--4--1-----
E|-----1-----6--------6-----------1--------1-----6--------6--------6--6--1-----6--------------6--------6-----------1-----------2--------------1-----------1-----------------------1-----------1--------------------
C|-----------------8-----5--------------------------------------6--------------------10----------------------------------------------3-----------------------3-----------------------------------3-----------------
G|--3-----3-----6-----------------------------3-----0-----------------------------10----------------1-----------------------------------1-----------------1--0--0-----------0-----------------1--0--0-----------0--

A|--------3---------------------------------------------0--------------------3--1----------------------------------------------------------------
E|-----------1-----4--3--------------4--------------1-----1-----------------------------1--1--------------------------------1--------------------
C|--0--2--3--2--------0--3--2--0--3-----0--2--3--5--------------------------------------------2-----------3-----2--0--2--3-----3--2--0-----------
G|-----0--------0--3--------0--------------------5-----------0--1--0-----0--------1--0-----------0--1--0-----------------------------------------

A|--------------------3---
E|--------------------3--
C|--0--2--3--5--3--2--0--
G|--------------------0--

Song lyrics here
A|--
E|--
C|--
G|--

Paste any tab in acousterr's tab maker and we'll play it !!!
Now supports capo and sound effects for vibrato/pull-off/hammer/bends/mutes etc !!! Checkout help section
tabs and chords, guitar tabs, music transcription, music technology, deep learning, music information retrieval, transcribe into tabs & chords, chordify, music renditions, songsterr, reverbnation, tabulature, bollywood chords, ultimate guitar, yousician, guitar lessons, acoustic guitar, electric guitar, guitar tuner, 911 tabs