Guitar Tabs for Me Tera Ban Jaunga

Meri raahein tere tak hain
E|--------------------------------------------------------
B|--------------------------------------------------------
G|--------------------------------------------------------
D|--------4--1-----------------------4--1-----------------
A|--2--4-----------4---4/6--2--2--4-----------4---4/6--2--
E|--------------------------------------------------------

Tujhpe hi toh mera haq hai
E|-----------------------------------------------------
B|-----------------------------------------------------
G|-----------------------------------------------------
D|--------4--1------------------4/6--4---4h-6p4--4-----
A|--2--4-----------4---4/6--2--------------------------
E|-----------------------------------------------------

Ishq mera tu beshaq hai
E|--------------2-----------------------------2-----------------------
B|--------2--------4-----4---2h-4p2--------2-----4-----4---2h-4p2-----
G|---3/4-----------------------------4--4--------------------------4--
D|--------------------------------------------------------------------
A|--------------------------------------------------------------------
E|--------------------------------------------------------------------

Tujhpe hi toh mera haq hai
E|-----------2-----------------------4--4--2---2h-4p2--2-----
B|--------2-----4-----4---2h-4p2-----------------------------
G|---3/4--------------------------4--------------------------
D|-----------------------------------------------------------
A|-----------------------------------------------------------
E|-----------------------------------------------------------

Saath chhodunga na tere piche aaunga
E|--------------------------------------------------------
B|-----------2--------------------------------------------
G|---3/4--3-----4--4--3--3--1---1h-3p1--------------------
D|--------------------------------------4---4/6--6--6-----
A|--------------------------------------------------------
E|--------------------------------------------------------

Chheen lunga ya Khuda se maang laaunga
E|--------------------------------------------------------
B|-----------2--------------------------------------------
G|---3/4--3-----4--4--3--3--1---1h-3p1--------------------
D|--------------------------------------4---4/6--6--6-----
A|--------------------------------------------------------
E|--------------------------------------------------------

Tere naal taqdeeran likhwaunga
Main tera ban jaaunga
E|-----------------------------------------------------------------------------------------------
B|-----------2-----------------------------------------------------------------------------------
G|---3/4--3-----4--4--3--3--1---1h-3p1-----------------------------------------------------------
D|--------------------------------------4---4/9--6--9--9--8--8--6---4/6-----4--4---4h-6p4--4-----
A|-----------------------------------------------------------------------------------------------
E|-----------------------------------------------------------------------------------------------

Main tera ban jaaunga
E|--------------------------------------------------
B|--------------------------------------------------
G|--------------------------------------------------
D|---6/9--9--8--8--6---4/6--6--6------6h-8p6--------
A|--------------------------------------------9-----
E|--------------------------------------------------

Lakhaan ton juda main hoya teri khaatir
E|---2/4--2--4---2h-4p2--------------------------------------
B|-----------------------4--2-----2------4/9--9---9/12-9-----
G|-----------------------------4-----------------------------
D|-----------------------------------------------------------
A|-----------------------------------------------------------
E|-----------------------------------------------------------

Tu hi manzil main tera musaafir
E|---2/4--2--4---2h-4p2-----------------------------------
B|-----------------------4-----2-----2-----4--4-----4-----
G|--------------------------4-----------------------------
D|--------------------------------------------------------
A|--------------------------------------------------------
E|--------------------------------------------------------

Rab nu bhula betha tere karke
E|-----------------------------------------------------------
B|-----------------------------------------------------------
G|-----------------------------------------------------------
D|---4/6--4--6---4h-6p4------------------4/6--6---6/9--6-----
A|-----------------------6--4--2--4--------------------------
E|-----------------------------------------------------------

Main ho gaya kaafir
E|---4/7-----7--7--7-----6---4h-6p4--------------------------
B|-----------------------------------7------7/9-----7--------
G|-----------------------------------------------------------
D|-----------------------------------------------------------
A|-----------------------------------------------------------
E|-----------------------------------------------------------

Tere liye main jahaan se takraunga
E|---6/7--6--9--7--7--6---6h-7p6--------------------------------
B|--------------------------------9-----9--7---7/9-----9--9-----
G|--------------------------------------------------------------
D|--------------------------------------------------------------
A|--------------------------------------------------------------
E|--------------------------------------------------------------

Sab kuch khoke tujhko hi paaunga
E|---6/7--6--9--7--7--6---6h-7p6-----------------------------
B|--------------------------------9-----9--7---7/9--9--9-----
G|-----------------------------------------------------------
D|-----------------------------------------------------------
A|-----------------------------------------------------------
E|-----------------------------------------------------------

Dil banke main dil dhadkaunga
Main tera ban jaaunga
E|---6/7--6--9--7--7--6---6h-7p6-----------------------------------------------------------------------
B|--------------------------------9-----9--7---9/12-9--12-12-11-11-9---7/9-----7--7------7h-9p7--7-----
G|-----------------------------------------------------------------------------------------------------
D|-----------------------------------------------------------------------------------------------------
A|-----------------------------------------------------------------------------------------------------
E|-----------------------------------------------------------------------------------------------------

Main tera ban jaaunga
E|-----------------------------------------------------------------
B|---9/12-12-11-11-9---7/9--9---7h-9p7-----------------------------
G|--------------------------------------9---8h-9p8-----6-----------
D|-----------------------------------------------------------9-----
A|-----------------------------------------------------------------
E|-----------------------------------------------------------------
tabs and chords, guitar tabs, music transcription, music technology, deep learning, music information retrieval, transcribe into tabs & chords, chordify, music renditions, songsterr, reverbnation, tabulature, bollywood chords, ultimate guitar, yousician, guitar lessons, acoustic guitar, electric guitar, guitar tuner, 911 tabs