Guitar Tabs for Mast Mast Do Nain

Pehle pehal tujhe dekha toh dil mera 
E|--------6--6--6-----8---6h-8p6--6-----------8--8--8-----10--8h10p8--10----
B|---6/8---------------------------------6/9--------------------------------
G|--------------------------------------------------------------------------
D|--------------------------------------------------------------------------
A|--------------------------------------------------------------------------
E|--------------------------------------------------------------------------

dhadka haye dhadka dhadka haye
E|--------10-10-10-10p8--8------8\6--6--4---6/8--8---8\6--6--6-----
B|---6/9-----------------------------------------------------------
G|-----------------------------------------------------------------
D|-----------------------------------------------------------------
A|-----------------------------------------------------------------
E|-----------------------------------------------------------------

Jal jal utha hoon main shola jo pyaar ka, 
E|--------6--6--6-----8---6h-8p6--6-----------8--8--8-----10--8h10p8--10----
B|---6/8---------------------------------6/9--------------------------------
G|--------------------------------------------------------------------------
D|--------------------------------------------------------------------------
A|--------------------------------------------------------------------------
E|--------------------------------------------------------------------------

bhadka haye bhadka bhadka haye
E|--------10-10-10-10p8--8------8\6--6--4---6/8--8---8\6--6--6-----
B|---6/9-----------------------------------------------------------
G|-----------------------------------------------------------------
D|-----------------------------------------------------------------
A|-----------------------------------------------------------------
E|-----------------------------------------------------------------

Neendhon mein gul gaye hain sapne jo tere
E|---8/11-11-11-11p10-10-10\8--8-----------8--10--8h10p8--------------
B|------------------------------------8/11----------------11-11-------
G|--------------------------------------------------------------------
D|--------------------------------------------------------------------
A|--------------------------------------------------------------------
E|--------------------------------------------------------------------

Badle se lag rahe hain andaaz mere
E|---8/11-11-11-11p10-10-10\8--8-----------8--10--8h10p8--------------
B|------------------------------------8/11----------------11-11-------
G|--------------------------------------------------------------------
D|--------------------------------------------------------------------
A|--------------------------------------------------------------------
E|--------------------------------------------------------------------

Badle se lag rahe hain andaaz mere
E|---4/6--8--6---6h-8p6--------------------------------------------------
B|-----------------------8---8h-9p8--6------8/9--8--6---6h-8p6-----8-----
G|--------------------------------------------------------------8--------
D|-----------------------------------------------------------------------
A|-----------------------------------------------------------------------
E|-----------------------------------------------------------------------

Tere mast mast do nain
Mere dil ka le gaye chain
E|-----------------------------------------------------------------
B|--6--6--6--8--6--8---6h-8p6--8--------6--8--8--8--8---8/9--6-----
G|--------------------------------8--------------------------------
D|-----------------------------------------------------------------
A|-----------------------------------------------------------------
E|-----------------------------------------------------------------

Mere dil ka le gaye chain
Tere mast mast do nain
E|--------------------------------------------------------
B|--4--4--4--6--4--6---4h6--4--4--4--8--8--6---6\4--4-----
G|--------------------------------------------------------
D|--------------------------------------------------------
A|--------------------------------------------------------
E|-----------------------------------------------------------

Tere mast mast do nain
Mere dil ka le gaye chain
E|--13-13-13-15-13-15-13h15p13-15----11-13-15-15-15-15-15/16----13----
B|--------------------------------------------------------------------
G|--------------------------------------------------------------------
D|--------------------------------------------------------------------
A|--------------------------------------------------------------------
E|--------------------------------------------------------------------

Mere dil ka le gaye chain
Tere mast mast do nain
E|--11-11-11-13-11-13-11h13p11-13----11-11-11-15-13-13-13\11-11----
B|-----------------------------------------------------------------
G|-----------------------------------------------------------------
D|-----------------------------------------------------------------
A|-----------------------------------------------------------------
E|-----------------------------------------------------------------
tabs and chords, guitar tabs, music transcription, music technology, deep learning, music information retrieval, transcribe into tabs & chords, chordify, music renditions, songsterr, reverbnation, tabulature, bollywood chords, ultimate guitar, yousician, guitar lessons, acoustic guitar, electric guitar, guitar tuner, 911 tabs