Guitar Tabs for Mary May You Know Part 1

(/) Slide Up  (\) Slide Down  (h) Hammer On  (p) Pull Off  (b) Bend (r) Release (v) Vibrato (x) Muted

Tabs for Song : 
BPM : 100

Song lyrics here
E|--0--0--0--0--2--2--2--2--0--0--0--0--2--2--2--2--
B|--0--0--0--0--3--3--3--3--1--1--1--1--4--4--4--4--
G|--0--0--0--0--2--2--2--2--0--0--0--0--4--4--4--4--
D|--2--2--2--2--0--0--0--0--2--2--2--2--4--4--4--4--
A|--2--2--2--2--------------3--3--3--3--2--2--2--2--
E|--0--0--0--0--------------------------------------

Song lyrics here
E|--0--0--0--0--2--2--2--2--3--3--3--3--0--0--0--0--
B|--0--0--0--0--3--3--3--3--3--3--3--3--0--0--0--0--
G|--0--0--0--0--2--2--2--2--4--4--4--4--0--0--0--0--
D|--2--2--2--2--0--0--0--0--5--5--5--5--2--2--2--2--
A|--2--2--2--2--------------5--5--5--5--2--2--2--2--
E|--0--0--0--0--------------3--3--3--3--0--0--0--0--

Paste any tab in acousterr's tab maker and we'll play it !!!
Now supports capo and sound effects for vibrato/pull-off/hammer/bends/mutes etc !!! Checkout help section
tabs and chords, guitar tabs, music transcription, music technology, deep learning, music information retrieval, transcribe into tabs & chords, chordify, music renditions, songsterr, reverbnation, tabulature, bollywood chords, ultimate guitar, yousician, guitar lessons, acoustic guitar, electric guitar, guitar tuner, 911 tabs