Guitar Tabs for Marshmellow & Anne Marie - Friends

(/) Slide Up  (\) Slide Down  (h) Hammer On  (p) Pull Off  (b) Bend (r) Release (v) Vibrato (x) Muted

Tabs & Chords

Check Track 2 for Chord Positions 

    C           Em                                  D           C           Em                   
E|-----------------------------------------------------------------------------------------------
B|--------1-----0-----------------------1-----0-----------------------1-----0--------------------
G|--------------------2-----------------------------2-----------------------------2--------------
D|--2-----------------------2-----2-----------------------0-----2-----------------------2-----2--
A|-----------------------------------------------------------------------------------------------
E|-----------------------------------------------------------------------------------------------

                   D           E              D                       C                    Bm 
E|--------------------------------------------------------------------------------------------
B|-----1-----0--------------------------------------------------------------------------------
G|-----------------2--------------------------------------------------------------------------
D|-----------------------0-----2--2--0--2-----0-----0--0--------0--------------------------0--
A|-----------------------------------------------------------3--------3-----3--3--0--3--------
E|--------------------------------------------------------------------------------------------

             E              D                       C           F        D           Bm    G  
E|--------------------------------------------------------------------------------------------
B|--------------------------------------------------------------------------------------------
G|-----------------------------------------------------------------------------------------0--
D|-----------2--2--0--2-----0-----0--0--------0--------------------------------0--------------
A|-----2-----------------------------------3--------3--3--3--3--0--3-----0-----------2--------
E|--------------------------------------------------------------------------------------------

          D                    G        D                          E              D           
E|--------------------------------------------------------------------------------------------
B|--------------------------------------------------------------------------------------------
G|-----------------------------0--------------------------------------------------------------
D|--3--2--0-----0--0-----0--------3--2--0--0--0--0--0-----0--------2--2--0--2-----0-----0--0--
A|--------------------3--------------------------------3--------0-----------------------------
E|--------------------------------------------------------------------------------------------

             C        Bm       A                             Em                               
E|--------------------------------------------------------------------------------------------
B|--------------------------------------------------------------------------------------------
G|-----------------------------------------2-----2-----2-----------------------0--------------
D|-----0-----------------------------------------------------2-----0-----2-----------2-----2--
A|--3--------3-----3--2-----2--0-----0--------------------------------------------------------
E|--------------------------------------------------------------------------------------------

             F     Em    D           A                 Em                                     
E|--------------------------------------------------------------------------------------------
B|--------------------------------------------------------------------------------------------
G|-----0-----------------------2-----2-----2-----2-----------------------0-----------------0--
D|-----------3-----2-----0-----------------------------2-----0-----2-----------2-----2--------
A|--------------------------------------------------------------------------------------------
E|--------------------------------------------------------------------------------------------

       F           D     A                 G                       Em          D              
E|--------------------------------------------------------------------------------------------
B|-----------------------------------------------0-----1-----0--------------------------------
G|-----------------------2-----2-----2-----2-----------------------2--------------------------
D|-----3-----2-----0-----------------------------------------------------2-----0-----0-----0--
A|--------------------------------------------------------------------------------------------
E|--------------------------------------------------------------------------------------------

       Dm    Em    A                 G                 Em                            F        
E|--------------------------------------------------------------------------------------------
B|--------------------------------------------------------------------------------------------
G|-----------------2-----2-----2-----2-----------------------0-----------------0--------------
D|-----3-----2-----------------------------2-----0-----2-----------2-----2-----------3-----2--
A|--------------------------------------------------------------------------------------------
E|--------------------------------------------------------------------------------------------

       D                                   A           E        D           E              D  
E|--------------------------------------------------------------------------------------------
B|--------------------------------------------------------------------------------------------
G|--------------------------------------------------------------------------------------------
D|-----0-----0--0--0--0-----0-----0--------------2--2--2--2-----0-----0-----2--2--2--2-----0--
A|--------------------------------------3--0--------------------------------------------------
E|--------------------------------------------------------------------------------------------

             A                 E           D        E                    C           Em       
E|--------------------------------------------------------------------------------------------
B|-----------------------------------------------------------------------------1-----0--------
G|-----------------------------------------------------------------------------------------2--
D|-----0--------------------2--2-----2-----0--0-----2--2--2--2-----0-----2--------------------
A|-----------3--0-----0-----------------------------------------------------------------------
E|--------------------------------------------------------------------------------------------

                               D           E                    C           Em                E  
E|-----------------------------------------------------------------------------------------------
B|-----------------1-----0--------------------------------------------1-----0--------------------
G|-----------------------------2--------------------------------------------------2--------------
D|-----2-----2-----------------------0-----2--2--2--2-----0-----2-----------------------2-----2--
A|-----------------------------------------------------------------------------------------------
E|-----------------------------------------------------------------------------------------------

             G           D                       C     Em          D                    C        
E|-----------------------------------------------------------------------------------------------
B|-----1-----0-----------------------------------------------------------------------------------
G|-----------------2-----------------------------------------------------------------------------
D|-----------------------0-----------0-----0-----0--2--2--0--2-----0-----0--0-----0--------------
A|-----------------------------0-----------------------------------------------3--------3-----3--
E|-----------------------------------------------------------------------------------------------

          F        Bm          E              D                    C           F        D        
E|-----------------------------------------------------------------------------------------------
B|-----------------------------------------------------------------------------------------------
G|-----------------------------------------------------------------------------------------------
D|-----------------0-----------2--2--0--2-----0-----0--0-----0--------------------------------0--
A|--3-----0--3-----------2--------------------------------3--------3--3--3--3--0--3-----0--------
E|-----------------------------------------------------------------------------------------------

       Bm    G        D                    G        D                                E        
E|--------------------------------------------------------------------------------------------
B|--------------------------------------------------------------------------------------------
G|-----------0-----------------------------0--------------------------------------------------
D|--------------3--2--0-----0--0-----0--------3--2--0--0--0--0--0-----0--------2-----2--0--2--
A|-----2--------------------------3--------------------------------3--------0-----------------
E|--------------------------------------------------------------------------------------------

       D                 C              Bm    A                                Em             
E|--------------------------------------------------------------------------------------------
B|--------------------------------------------------------------------------------------------
G|-----------------------------------------------------------2-----2-----2--------------------
D|-----0-----0-----0-----0-----------------------------------------------------2-----0-----2--
A|--------------------3--------3-----3--2-----2--0-----0--------------------------------------
E|--------------------------------------------------------------------------------------------

                               F     Em    D  
E|--------------------------------------------
B|--------------------------------------------
G|-----0-----------------0--------------------
D|-----------2-----2-----------3-----2-----0--
A|--------------------------------------------
E|--------------------------------------------

Guitar Tabs for Marshmellow & Anne Marie - Friends






    C           Em                                  D           C           Em                   
E|--0-----------0-----------------------------------2-----------0-----------0--------------------
B|--1-----------0-----------------------------------3-----------1-----------0--------------------
G|--0-----------0-----------------------------------2-----------0-----------0--------------------
D|--2-----------2-----------------------------------0-----------2-----------2--------------------
A|--3-----------2-----------------------------------------------3-----------2--------------------
E|--------------0-----------------------------------------------------------0--------------------

                   D           E              D                       C                    Bm 
E|-----------------2-----------0--------------2-----------------------0--------------------2--
B|-----------------3-----------0--------------3-----------------------1--------------------3--
G|-----------------2-----------1--------------2-----------------------0--------------------4--
D|-----------------0-----------2--------------0-----------------------2--------------------4--
A|-----------------------------2--------------------------------------3--------------------2--
E|-----------------------------0--------------------------------------------------------------

             E              D                       C           F        D           Bm    G  
E|-----------0--------------2-----------------------0-----------1--------2-----------2-----3--
B|-----------0--------------3-----------------------1-----------1--------3-----------3-----3--
G|-----------1--------------2-----------------------0-----------2--------2-----------4-----4--
D|-----------2--------------0-----------------------2-----------3--------0-----------4-----5--
A|-----------2--------------------------------------3-----------3--------------------2-----5--
E|-----------0--------------------------------------------------1--------------------------3--

          D                    G        D                          E              D           
E|--------2--------------------3--------2--------------------------0--------------2-----------
B|--------3--------------------3--------3--------------------------0--------------3-----------
G|--------2--------------------4--------2--------------------------1--------------2-----------
D|--------0--------------------5--------0--------------------------2--------------0-----------
A|-----------------------------5-----------------------------------2--------------------------
E|-----------------------------3-----------------------------------0--------------------------

             C        Bm       A                             Em                               
E|-----------0--------2--------0-----------------------------0--------------------------------
B|-----------1--------3--------2-----------------------------0--------------------------------
G|-----------0--------4--------2-----------------------------0--------------------------------
D|-----------2--------4--------2-----------------------------2--------------------------------
A|-----------3--------2--------0-----------------------------2--------------------------------
E|-----------------------------------------------------------0--------------------------------

             F     Em    D           A                 Em                                     
E|-----------1-----0-----2-----------0-----------------0--------------------------------------
B|-----------1-----0-----3-----------2-----------------0--------------------------------------
G|-----------2-----0-----2-----------2-----------------0--------------------------------------
D|-----------3-----2-----0-----------2-----------------2--------------------------------------
A|-----------3-----2-----------------0-----------------2--------------------------------------
E|-----------1-----0-----------------------------------0--------------------------------------

       F           D     A                 G                       Em          D              
E|-----1-----------2-----0-----------------3-----------------------0-----------2--------------
B|-----1-----------3-----2-----------------3-----------------------0-----------3--------------
G|-----2-----------2-----2-----------------4-----------------------0-----------2--------------
D|-----3-----------0-----2-----------------5-----------------------2-----------0--------------
A|-----3-----------------0-----------------5-----------------------2--------------------------
E|-----1-----------------------------------3-----------------------0--------------------------

       Dm    Em    A                 G                 Em                            F        
E|-----1-----0-----0-----------------3-----------------0-----------------------------1--------
B|-----3-----0-----2-----------------3-----------------0-----------------------------1--------
G|-----2-----0-----2-----------------4-----------------0-----------------------------2--------
D|-----0-----2-----2-----------------5-----------------2-----------------------------3--------
A|-----------2-----0-----------------5-----------------2-----------------------------3--------
E|-----------0-----------------------3-----------------0-----------------------------1--------

       D                                   A           E        D           E              D  
E|-----2-----------------------------------0-----------0--------2-----------0--------------2--
B|-----3-----------------------------------2-----------0--------3-----------0--------------3--
G|-----2-----------------------------------2-----------1--------2-----------1--------------2--
D|-----0-----------------------------------2-----------2--------0-----------2--------------0--
A|-----------------------------------------0-----------2--------------------2-----------------
E|-----------------------------------------------------0--------------------0-----------------

             A                 E           D        E                    C           Em       
E|-----------0-----------------0-----------2--------0--------------------0-----------0--------
B|-----------2-----------------0-----------3--------0--------------------1-----------0--------
G|-----------2-----------------1-----------2--------1--------------------0-----------0--------
D|-----------2-----------------2-----------0--------2--------------------2-----------2--------
A|-----------0-----------------2--------------------2--------------------3-----------2--------
E|-----------------------------0--------------------0--------------------------------0--------

                               D           E                    C           Em                E  
E|-----------------------------2-----------0--------------------0-----------0-----------------0--
B|-----------------------------3-----------0--------------------1-----------0-----------------0--
G|-----------------------------2-----------1--------------------0-----------0-----------------1--
D|-----------------------------0-----------2--------------------2-----------2-----------------2--
A|-----------------------------------------2--------------------3-----------2-----------------2--
E|-----------------------------------------0--------------------------------0-----------------0--

             G           D                       C     Em          D                    C        
E|-----------3-----------2-----------------------0-----0-----------2--------------------0--------
B|-----------3-----------3-----------------------1-----0-----------3--------------------1--------
G|-----------4-----------2-----------------------0-----0-----------2--------------------0--------
D|-----------5-----------0-----------------------2-----2-----------0--------------------2--------
A|-----------5-----------------------------------3-----2--------------------------------3--------
E|-----------3-----------------------------------------0-----------------------------------------

          F        Bm          E              D                    C           F        D        
E|--------1--------2-----------0--------------2--------------------0-----------1--------2--------
B|--------1--------3-----------0--------------3--------------------1-----------1--------3--------
G|--------2--------4-----------1--------------2--------------------0-----------2--------2--------
D|--------3--------4-----------2--------------0--------------------2-----------3--------0--------
A|--------3--------2-----------2-----------------------------------3-----------3-----------------
E|--------1--------------------0-----------------------------------------------1-----------------

       Bm    G        D                    G        D                                E        
E|-----2-----3--------2--------------------3--------2--------------------------------0--------
B|-----3-----3--------3--------------------3--------3--------------------------------0--------
G|-----4-----4--------2--------------------4--------2--------------------------------1--------
D|-----4-----5--------0--------------------5--------0--------------------------------2--------
A|-----2-----5-----------------------------5-----------------------------------------2--------
E|-----------3-----------------------------3-----------------------------------------0--------

       D                 C              Bm    A                                Em             
E|-----2-----------------0--------------2-----0--------------------------------0--------------
B|-----3-----------------1--------------3-----2--------------------------------0--------------
G|-----2-----------------0--------------4-----2--------------------------------0--------------
D|-----0-----------------2--------------4-----2--------------------------------2--------------
A|-----------------------3--------------2-----0--------------------------------2--------------
E|-----------------------------------------------------------------------------0--------------

                               F     Em    D  
E|-----------------------------1-----0-----2--
B|-----------------------------1-----0-----3--
G|-----------------------------2-----0-----2--
D|-----------------------------3-----2-----0--
A|-----------------------------3-----2--------
E|-----------------------------1-----0--------

tabs and chords, guitar tabs, music transcription, music technology, deep learning, music information retrieval, transcribe into tabs & chords, chordify, music renditions, songsterr, reverbnation, tabulature, bollywood chords, ultimate guitar, yousician, guitar lessons, acoustic guitar, electric guitar, guitar tuner, 911 tabs