Mario Theme Song - Guitar Tabs

(/) Slide Up  (\) Slide Down  (h) Hammer On  (p) Pull Off  (b) Bend (r) Release (v) Vibrato (x) Muted

Tabs for Song : 
BPM : 195

Song lyrics here 
E|--12-12-12----12-15-------------------------------15-17-13-15----------------------------------------15-17-13-15-------------
B|-----------13----------13----------12----------17-------------17-13-15-12-13----------12----------17-------------17-13-15-12-
G|--------------------12----12----14----15-14-12-------------------------------12----14----15-14-12----------------------------
D|-----------------------------14-------------------------------------------------14-------------------------------------------
A|-----------------------------------------------------------------------------------------------------------------------------
E|-----------------------------------------------------------------------------------------------------------------------------

Song lyrics here 
E|--15-14-13----12-------------------15-14-13-------20-20-20----15-14-13----12----------------------------
B|-----------16----------13----13-15----------16-17----------------------16----------13----13-15-16-15-13-
G|-----------------13-14----14-------------------------------------------------13-14----14----------------
D|--------------------------------------------------------------------------------------------------------
A|--------------------------------------------------------------------------------------------------------
E|--------------------------------------------------------------------------------------------------------

E|--------------------------------
B|--13-13----13-13-15-17-13-------
G|--------------------------14-12-
D|--------------------------------
A|--------------------------------
E|--------------------------------

Use manual mode to free up cursor. Paste any tab in acousterr tab maker and we'll play it !!!

About Be My Love : The song was written for Mario Lanza who sang it with Kathryn Grayson in the 1950 movie The Toast of New Orleans . It was nominated for the Academy Award for Best Original Song in 1950 . Mario Lanza's 1950 recording of the song was his first million-seller . It was on the Billboard charts for 34 weeks, going all the way to number one . It became so firmly linked to him that he wearied of it and resorted to spoofing it . Be My Love has a significant contribution from artist(s) Sammy Cahn,Nicholas Brodszky,Kathryn Grayson. Its associated with movies - The Toast of New Orleans.

About Sammy Cahn - Sammy Cahn is best known for his romantic lyrics to films and Broadway songs . He and his collaborators had a series of hit recordings with Frank Sinatra during the singer's tenure at Capitol Records . Among his most enduring songs is "Let It Snow! Let It Snow!" cowritten with Samuel Cohen was born Samuel Cohen in the Lower East Side of New York City . His sisters, Sadye, Pearl, Florence, and Evelyn, all studied the piano . His mother did not approve of Sammy studying it though, so he took violin lessons .

About Mario Lanza - Mario Lanza was an American tenor of Italian ancestry . He was an actor and Hollywood film star of the late 1940s and 1950s . Lanza signed a seven-year film contract with Metro-Goldwyn-Mayer . He sang Pinkerton in Puccini's Madame Butterfly in New Orleans . His film d├ębut for MGM was in That Midnight Kiss (1949) with Kathryn Grayson and Ethel Barrymore . His featured popular song "Be My Love" became his first million-selling hit . In 1951, he played the role of Enrico Caruso, his idol .

About Nicholas Brodszky - Nicholas "Slug" Brodszky was a composer of popular songs . Brodszky was born in Odessa (now in Ukraine), into a Jewish family, who moved to Budapest during the civil war in Russia . He spent many years studying and working in Rome, Vienna, Berlin and Budapest . He composed for many musical films including Rich, Young and Pretty . He emigrated to the United States in 1934 . He also wrote the score for Der Purimspieler (1939)

tabs and chords, guitar tabs, music transcription, music technology, deep learning, music information retrieval, transcribe into tabs & chords, chordify, music renditions, songsterr, reverbnation, tabulature, bollywood chords, ultimate guitar, yousician, guitar lessons, acoustic guitar, electric guitar, guitar tuner, 911 tabs