Mandolin Tabs for Maria Lisboa


Tabs for Song : MARIA LISBOA
Estrofe 1
Song lyrics here
E|--2--0--2--0--2--0--2--0--2--0--2--0-------------------------------------------------------------------------------
A|--------------------------------------2v-2--3--2--------------------------2v-0v-0--2--3--5--3--2--0-----------2--0-
D|--------------------------------------------------5-4--2v-4v-2v-2v-2--4--5---------------------------5--5--5-------
G|-------------------------------------------------------------------------------------------------------------------
                                                                                              Refrão
E|-----------------------------------------------------------------------------------------4--4--4--4--2--4--5v-5--4--
A|--2--3--2--0v-0--2--3--5--3--2--0-----------2--0--2--3--2--0--------------------0--2--4v----------------------------
D|-----------------------------------5v-5--5--------------------2--2--2--2--4--2--------------------------------------
G|--------------------------------------------------------------------------------------------------------------------

E|--2--2--2--2--2--0--2--4v-4--3--2--1v-0v---------------------------------------------------------------------------
A|-------------------------------------------4v-4--2--0--0--0--0--2--4--2--2--1--0------------------0v---2--4--2--4--
D|----------------------------------------------------------------------------------6--6--6--6--4--6-----------------
G|-------------------------------------------------------------------------------------------------------------------

E|-----------------0--0v-2v-0v-------0--2--3--5--3--2--0-----0--0--2--3--2--3--5--5--5--7--7--8--7--8--7--8--7--5--3--
A|--2--4--2--4--2--------------5v-3v----------------------2-----------------------------------------------------------
D|--------------------------------------------------------------------------------------------------------------------
G|--------------------------------------------------------------------------------------------------------------------

E|--0--0--0--2--3--2--3--5--5--5--7--7--8--7--8--7--8--7--5--3--0v-2v-0v---------------------------------------------
A|----------------------------------------------------------------------2v-0--2---3--5v-3v-0--2--3--5--3--2--0--------
D|--------------------------------------------------------------------------------------------------------------5v---
G|-------------------------------------------------------------------------------------------------------------------

E|--------------------------|-----------------------------------------------------------------------------------------
A|--------2--0-----2--3--2--0v-0--2--3--5--3--2--0-----------2--0--2--3--2--0--------------------0--2--4v-------------
D|-5---5--------------------------------------------5v-5--5--------------------2--2--2--2--4--2v----------------------
G|--------------------------------------------------------------------------------------------------------------------

E|-4---4--4--2--4--5v----5--4--2--2--2--2--2--0--2--4v-4--3--2--1v-0v-------------------------------------------------
A|----------------------------------------------------------------------4v-4--2--0--0--0--0--2--4--2--2--1--0---------
D|-------------------------------------------------------------------------------------------------------------6--6--6
G|--------------------------------------------------------------------------------------------------------------------
                                                continua  até ao fim: Seu apelidooooooo Lisboooooooooaa
E|-----------------------------------0v-2v----0-----------------------2v-7v-5v-4v-0--2--4--0-----------
A|-----------0v---2--4--2--4--2--4--2------------------------------------------------------------------
D|----6--4--6------------------------------------------------------------------------------------------
G|-----------------------------------------------------------------------------------------------------




 (v) Varias vezes a mesma corda


tabs and chords, guitar tabs, music transcription, music technology, deep learning, music information retrieval, transcribe into tabs & chords, chordify, music renditions, songsterr, reverbnation, tabulature, bollywood chords, ultimate guitar, yousician, guitar lessons, acoustic guitar, electric guitar, guitar tuner, 911 tabs