Guitar Tabs for Marcha De Los Gatos




E|--------------------------1--3--1--0--------------------------------------0-----
B|--------1--0-----------3--------------3-----------1--0--3--1-----------0--------
G|--------------2-----2--------------------2-----------------------------------0--
D|-----2-----------0-----------------------------2--------------------0-----------
A|--0-----------------------------------------3--------------------2--------------
E|--------------------------------------------------------------0-----------------

E|--------------------------1--3--1--0-----------------------1-----------------0--
B|--------1--0-----------3--------------3-----------1--0--3-----------------0-----
G|--------------2-----2--------------------2-----2-----------------------1--------
D|-----------------0--------------------------3-----------------------0-----------
A|-----2-----------------------------------------------------------2--------------
E|--0-----------------------------------------------------------0-----------------

E|--------------------------------------------------------------------------------
B|--------------------------------1--------------1--------1--------0--1-----------
G|--1--1--1--1--1--1--1--1-----------2-----------------------------------2--0-----
D|--2--2--2--2--2--2--2--2-----2--------2-----2--------0-----------------------2--
A|--2--2--2--2--2--2--2--2--0--------------------------------0--2-----------------
E|-----------------------------------------3--------2-----------------------------

E|--------------------------------------------------1--0--------------------------
B|-----------0--------------1--------0--1--0-----3--------------------0-----------
G|--------------2-----------------------------1-----------2-----------------------
D|--0-----2--------2-----2-----------------------------------------2-----2-----2--
A|-----0-----------------------0--2--------------------------0--2-----------------
E|--------------------3-----------------------------------------------------3-----

E|--------------------------------------------0--3--1-----------------------------
B|--1--------------1-----------------0--1--3-----------------------------1--------
G|-----2-----------------------------------------------2--------------2-----2-----
D|--------2-----2--------------2--2-----------------------2-----2--2-----------2--
A|--------------------2--0--2--------------------------------0--------------------
E|-----------2--------------------------------------------------------------------

E|-----------------------------------------------------0--------------------------
B|-----------1-----------------1--3--1--------------0--------------0--------------
G|--------------------------0--------------------1--------------2-----2-----------
D|--------3-----3--------2--------------------0--------------2-----------2--------
A|-----3-----------3--3--------------------2--------------0--------------------3--
E|--1-----------------------------------0-----------------------------------1-----

E|-----------------------------------------------0--------------------------------
B|-----1-----------------1--------------------0-----0-----------------1--0--------
G|--------------------0-----0-----------1--------------1-----------2--------------
D|--3-----3--------2-----------2-----------0--------------------2-----------------
A|-----------3--3--------------------2--------------------2--0-----------------3--
E|--------------------------------0-----------------------------------------1-----

E|--------------------------------------------------------------------------------
B|-----1-----------------0-----------------------------1-----------1-----------1--
G|--------0-----------1-----1--1--1--1--1--1--------2-----------2-----------2-----
D|--3--------------0--------2--2--2--2--2--2-----2-----------2-----------2--------
A|--------------2-----------2--2--2--2--2--2--0-----------0-----------0-----------
E|-----------0--------------------------------------------------------------------

E|--------------------------------------------------------------------------------
B|--------------1--------------1--------------1--------------0--------------0-----
G|-----------2--------------2--------------2--------------1--------------1--------
D|--------3--------------3--------------3--------------2--------------2-----------
A|-----3--------------3--------------3--------------2--------------2--------------
E|--1--------------1--------------1--------------0--------------0--------------0--

E|-----------------------------------------------------0-----------0--------------
B|-----------0--------------1-----------1-----------1-----------1-----------------
G|--------1--------------2-----------------2-----2-----------2--------2-----------
D|-----2--------------2--------2-----2--------3-----------2--------------------2--
A|--2--------------0--------------3-----------------------------------------0-----
E|--------------0--------------------------------------------------------0--------

E|--------------------------------0--------------0-----------------0--------------
B|-----1--------------------1--------1--------1-----1-----------------1-----------
G|--2-----2--------------2-----2-----------2-----------------2-----------2--------
D|-----------2--------2-----------------3--------------3--2-----------------2--0--
A|--------------0--3--------------------------------------------0-----------------
E|--------------------------------------------------------------------------------

E|--------------------------0-----0--------------------------------------0--------
B|--------------------------------1-----------------1-----------------------1-----
G|--0-----0--------5--0-----------2--2--------2--------2-----------2--------------
D|-----1-----2--7--------7--------------2--------2--------2-----------2--------2--
A|-----------------------------0--------------------------------0-----------------
E|-----------------------------------------3-----------------2--------------------

E|--------1--0--3-----------------------------
B|--1--3-----------1-----------------1--1--1--
G|--------------------2--------------2--2--2--
D|-----------------------2--3--2-----2--2--2--
A|--------------------------------0-----------
E|--------------------------------------------

tabs and chords, guitar tabs, music transcription, music technology, deep learning, music information retrieval, transcribe into tabs & chords, chordify, music renditions, songsterr, reverbnation, tabulature, bollywood chords, ultimate guitar, yousician, guitar lessons, acoustic guitar, electric guitar, guitar tuner, 911 tabs