Bass Tabs for Maps (cover) By Camp Cope

(/) Slide Up  (\) Slide Down  (h) Hammer On  (p) Pull Off  (b) Bend (r) Release (v) Vibrato (x) Muted

Maps by Yeah Yeah Yeahs by Camp Cope (Bass)

Intro
G|--5555555555555555555555--- tremolo pick for a while ---
D|--------------------------------------------------------
A|--------------------------------------------------------
E|--------------------------------------------------------

Verse variations
G|--12-12-12-12-12-12-12-12-9-9-9-7-7-7-9-9-
D|------------------------------------------
A|------------------------------------------
E|------------------------------------------


G|--12-12-12-12-12-12-14-14-9-9-9-7-7-7-7-7-
D|------------------------------------------
A|------------------------------------------
E|------------------------------------------

G|--12-12-12-12-12-12-14-14-9-9-9-9-9-9-9-9-
D|------------------------------------------
A|------------------------------------------
E|------------------------------------------

Chorus variations
G|--19-19-19-19-19-19-16-16-14-14-14-12-12-12-14-16-
D|--------------------------------------------------
A|--------------------------------------------------
E|--------------------------------------------------

Bridge variations
G|--12-12-12-11-11-12-12-12-5-5-5-4-4-4-4-4-
D|------------------------------------------
A|------------------------------------------
E|------------------------------------------

G|--12-12-12-11-11-16-16-16-7-7-7-5-5-4-4-4-
D|------------------------------------------
A|------------------------------------------
E|------------------------------------------

tabs and chords, guitar tabs, music transcription, music technology, deep learning, music information retrieval, transcribe into tabs & chords, chordify, music renditions, songsterr, reverbnation, tabulature, bollywood chords, ultimate guitar, yousician, guitar lessons, acoustic guitar, electric guitar, guitar tuner, 911 tabs