Ukulele Tabs for Manang Biday

(/) Slide Up  (\) Slide Down  (h) Hammer On  (p) Pull Off  (b) Bend (r) Release (v) Vibrato (x) Muted

Tabs for Song : Manang Biday
A|-----------0-----0--0--2--0--3-----------3-----2--------2--------3--
E|--0--1--3--1-----------------0-----3--3-----3--3-----1-----3--3--0--
C|-----------0-----------------0-----------------2-----------------0--
G|-----------2-----------------0-----------------0-----------------0--

A|-----------------3-----------------2-----------------2-----------------3-----------------0-----
E|--------3--3--3--0-----0--0-----0--1--------1-----1--1-----3--0--1--0--0-----0--1---0h3--1-----
C|-----------------0-----------2-----2-----------2-----2-----------------0-----------------0-----
G|-----------------0-----------------0-----------------0-----------------0-----------------2-----

A|--0--0--3--0--3-----------------2--------0--------3--
E|--------------0-----3--3--0--3--3-----1-----3--1--0--
C|--------------0-----------------2-----------------0--
G|--------------0-----------------0-----------------0--


Song Key:

Key of C
Intro: l F l C l G l C l
Verse: l C l G l G l C l
            l F l C l G l C 

Hello I'm Jess. Sorry for the this tab. Hope you like it. Paste any tab in acousterr's tab maker and we'll play it !!!
Now supports capo and sound effects for vibrato/pull-off/hammer/bends/mutes etc !!! Checkout help section
tabs and chords, guitar tabs, music contests, music covers, songsterr, reverbnation, renditions, tabulature, bollywood chords, ultimate guitar, yousician, guitar lessons, torrins, fender, gibson, acoustic guitar, electric guitar, youtube covers, gootar, guitar tuner, A-Z tabs, 911 tabs