Man Who Came Out The Earth - John Petrucci - Guitar Tabs

GUITARRA ACUSTICA
    
                                                                                                                                                                                                                                                                                                                                                                                                                                                                                                                                                                                                                                                                                                                                                                                                                                                                                                                                                                                                                                                                                                                                                                                              
E|--------0----------------|------------------0----|
B|--------------0----------|------------------0----|
G|--------------------3----|-----------------------|
D|--4----------------------|4----------------------|
A|--4----------------------|------4----------------|
E|--2----------------------|------------2----------|

    
                                                                                                                                                                                                                                                                                                                                                                                                                                                                                                                                                                                                                                                                                                                                                                                                                                                                                                                                                                                                                                                                                                                                                                                              
E|--------0----------------|------------------0----|
B|--------------0----------|------------------0----|
G|--------------------3----|-----------------------|
D|--4----------------------|4----------------------|
A|--4----------------------|------4----------------|
E|--2----------------------|------------2----------|

    
                                                                                                                                                                                                                                                                                                                                                                                                                                                                                                                                                                                                                                                                                                                                                                                                                                                                                                                                                                                                                                                                                                                                                                                              
E|--------0----------------|------------------0----|
B|--------------0----------|------------------0----|
G|--------------------3----|-----------------------|
D|--4----------------------|4----------------------|
A|--4----------------------|------4----------------|
E|--2----------------------|------------2----------|

    
                                                                                                                                                                                                                                                                                                                                                                                                                                                                                                                                                                                                                                                                                                                                                                                                                                                                                                                                                                                                                                                                                                                                                                                              
E|--------0----------------|------------------0----|
B|--------------0----------|------------------0----|
G|--------------------3----|-----------------------|
D|--4----------------------|4----------------------|
A|--4----------------------|------4----------------|
E|--2----------------------|------------2----------|

    
                                                                                                                                                                                                                                                                                                                                                                                                                                                                                                                                                                                                                                                                                                                                                                                                                                                                                                                                                                                                                                                                                                                                                                                              
E|--------0----------------|------0----------------|
B|--------------0----------|------------0----------|
G|--------------------3----|------------------6----|
D|--4----------------------|7----------------------|
A|--4----------------------|7----------------------|
E|--2----------------------|5----------------------|

    
                                                                                                                                                                                                                                                                                                                                                                                                                                                                                                                                                                                                                                                                                                                                                                                                                                                                                                                                                                                                                                                                                                                                                                                              
E|--------0----------------|------0----------------|
B|--------------0----------|------------0----------|
G|--------------------8----|------------------3----|
D|--9----------------------|4----------------------|
A|--9----------------------|4----------------------|
E|--7----------------------|2----------------------|

    
                                                                                                                                                                                                                                                                                                                                                                                                                                                                                                                                                                                                                                                                                                                                                                                                                                                                                                                                                                                                                                                                                                                                                                                              
E|--------0----------------|------0----------------|
B|--------------0----------|------------0----------|
G|--------------------6----|------------------8----|
D|--7----------------------|9----------------------|
A|--7----------------------|9----------------------|
E|--5----------------------|7----------------------|

    
                                                                                                                                                                                                                                                                                                                                                                                                                                                                                                                                                                                                                                                                                                                                                                                                                                                                                                                                                                                                                                                                                                                                                                                              
E|--------0----------------|------0----------------|
B|--------------0----------|------------0----------|
G|--------------------3----|------------------6----|
D|--4----------------------|7----------------------|
A|--4----------------------|7----------------------|
E|--2----------------------|5----------------------|

    
                                                                                                                                                                                                                                                                                                                                                                                                                                                                                                                                                                                                                                                                                                                                                                                                                                                                                                                                                                                                                                                                                                                                                                                              
E|--------0----------------|------0----------------|
B|--------------0----------|------------0----------|
G|--------------------8----|------------------3----|
D|--9----------------------|4----------------------|
A|--9----------------------|4----------------------|
E|--7----------------------|2----------------------|

    
                                                                                                                                                                                                                                                                                                                                                                                                                                                                                                                                                                                                                                                                                                                                                                                                                                                                                                                                                                                                                                                                                                                                                                                              
E|--------0----------------|------0----------------|
B|--------------0----------|------------0----------|
G|--------------------6----|------------------8----|
D|--7----------------------|9----------------------|
A|--7----------------------|9----------------------|
E|--5----------------------|7----------------------|

    
                                                                                                                                                                                                                                                                                                                                                                                                                                                                                                                                                                                                                                                                                                                                                                                                                                                                                                                                                                                                                                                                                                                                                                                              
E|--------------------0----|------------------0----|
B|--------------------0----|------------------0----|
G|--------------------8----|------------------8----|
D|--4--------7-----9--9----|4--------7-----9--9----|
A|--4--------7-----9--9----|4--------7-----9--9----|
E|--2--------5-----7--7----|2--------5-----7--7----|

    
                                                                                                                                                                                                                                                                                                                                                                                                                                                                                                                                                                                                                                                                                                                                                                                                                                                                                                                                                                                                                                                                                                                                                                                              
E|--------------------0----|------------------0----|
B|--------------------0----|------------------0----|
G|--------------------8----|------------------8----|
D|--4--------7-----9--9----|4--------7-----9--9----|
A|--4--------7-----9--9----|4--------7-----9--9----|
E|--2--------5-----7--7----|2--------5-----7--7----|

    
                                                                                                                                                                                                                                                                                                                                                                                                                                                                                                                                                                                                                                                                                                                                                                                                                                                                                                                                                                                                                                                                                                                                                                                              
E|--------------------0----|------------------0----|
B|--------------------0----|------------------0----|
G|--------------------8----|------------------8----|
D|--4--------7-----9--9----|4--------7-----9--9----|
A|--4--------7-----9--9----|4--------7-----9--9----|
E|--2--------5-----7--7----|2--------5-----7--7----|

    
                                                                                                                                                                                                                                                                                                                                                                                                                                                                                                                                                                                                                                                                                                                                                                                                                                                                                                                                                                                                                                                                                                                                                                                              
E|--------------------0----|------------------0----|
B|--------------------0----|------------------0----|
G|--------------------8----|------------------8----|
D|--4--------7-----9--9----|4--------7-----9--9----|
A|--4--------7-----9--9----|4--------7-----9--9----|
E|--2--------5-----7--7----|2--------5-----7--7----|

    
                                                                                                                                                                                                                                                                                                                                                                                                                                                                                                                                                                                                                                                                                                                                                                                                                                                                                                                                                                                                                                                                                                                                                                                              
E|--------------------0----|------------------0----|
B|--------------------0----|------------------0----|
G|--------------------8----|------------------8----|
D|--4--------7-----9--9----|4--------7-----9--9----|
A|--4--------7-----9--9----|4--------7-----9--9----|
E|--2--------5-----7--7----|2--------5-----7--7----|

    
                                                                                                                                                                                                                                                                                                                                                                                                                                                                                                                                                                                                                                                                                                                                                                                                                                                                                                                                                                                                                                                                                                                                                                                              
E|-------------------------|------------------0----|
B|-------------------------|------------------0----|
G|-------------------------|------------------8----|
D|--2-----4--4-------------|4--------7-----9--9----|
A|--2-----4--4-------------|4--------7-----9--9----|
E|--0-----2--2-------------|2--------5-----7--7----|

    
                                                                                                                                                                                                                                                                                                                                                                                                                                                                                                                                                                                                                                                                                                                                                                                                                                                                                                                                                                                                                                                                                                                                                                                              
E|--------------------0----|------------------0----|
B|--------------------0----|------------------0----|
G|--------------------8----|------------------8----|
D|--4--------7-----9--9----|4--------7-----9--9----|
A|--4--------7-----9--9----|4--------7-----9--9----|
E|--2--------5-----7--7----|2--------5-----7--7----|

    
                                                                                                                                                                                                                                                                                                                                                                                                                                                                                                                                                                                                                                                                                                                                                                                                                                                                                                                                                                                                                                                                                                                                                                                              
E|-------------------------|------------------0----|
B|-------------------------|------------------0----|
G|-------------------------|------------------8----|
D|--2-----4--4-------------|4--------7-----9--9----|
A|--2-----4--4-------------|4--------7-----9--9----|
E|--0-----2--2-------------|2--------5-----7--7----|

    
                                                                                                                                                                                                                                                                                                                                                                                                                                                                                                                                                                                                                                                                                                                                                                                                                                                                                                                                                                                                                                                                                                                                                                                              
E|--------------------0----|------------------0----|
B|--------------------0----|------------------0----|
G|--------------------8----|------------------8----|
D|--4--------7-----9--9----|4--------7-----9--9----|
A|--4--------7-----9--9----|4--------7-----9--9----|
E|--2--------5-----7--7----|2--------5-----7--7----|

    
                                                                                                                                                                                                                                                                                                                                                                                                                                                                                                                                                                                                                                                                                                                                                                                                                                                                                                                                                                                                                                                                                                                                                                                              
E|-------------------------|------------------0----|
B|-------------------------|------------------0----|
G|-------------------------|------------------8----|
D|--2-----4--4-------------|4--------7-----9--9----|
A|--2-----4--4-------------|4--------7-----9--9----|
E|--0-----2--2-------------|2--------5-----7--7----|

    
                                                                                                                                                                                                                                                                                                                                                                                                                                                                                                                                                                                                                                                                                                                                                                                                                                                                                                                                                                                                                                                                                                                                                                                              
E|--------------------0----|------------------0----|
B|--------------------0----|------------------0----|
G|--------------------8----|------------------8----|
D|--4--------7-----9--9----|4--------7-----9--9----|
A|--4--------7-----9--9----|4--------7-----9--9----|
E|--2--------5-----7--7----|2--------5-----7--7----|

    
                                                                                                                                                                                                                                                                                                                                                                                                                                                                                                                                                                                                                                                                                                                                                                                                                                                                                                                                                                                                                                                                                                                                                                                              
E|-------------------------|------------------0----|
B|-------------------------|------------------0----|
G|-------------------------|------------------8----|
D|--2-----4--4-------------|4--------7-----9--9----|
A|--2-----4--4-------------|4--------7-----9--9----|
E|--0-----2--2-------------|2--------5-----7--7----|

    
                                                                                                                                                                                                                                                                                                                                                                                                                                                                                                                                                                                                                                                                                                                                                                                                                                                                                                                                                                                                                                                                                                                                                                                              
E|--------------------0----|-----------------------|
B|--------------------0----|-----------------------|
G|--------------------8----|-----------------------|
D|--4--------7-----9--9----|2-----4--4-------------|
A|--4--------7-----9--9----|2-----4--4-------------|
E|--2--------5-----7--7----|0-----2--2-------------|

    
                                                                                                                                                                                                                                                                                                                                                                                                                                                                                                                                                                                                                                                                                                                                                                                                                                                                                                                                                                                                                                                                                                                                                                                              
E|--------0----------------|------0----------------|
B|--------------0----------|------------0----------|
G|--------------------3----|------------------6----|
D|--4----------------------|7----------------------|
A|--4----------------------|7----------------------|
E|--2----------------------|5----------------------|

    
                                                                                                                                                                                                                                                                                                                                                                                                                                                                                                                                                                                                                                                                                                                                                                                                                                                                                                                                                                                                                                                                                                                                                                                              
E|--------0----------------|------0----------------|
B|--------------0----------|------------0----------|
G|--------------------8----|------------------3----|
D|--9----------------------|4----------------------|
A|--9----------------------|4----------------------|
E|--7----------------------|2----------------------|

    
                                                                                                                                                                                                                                                                                                                                                                                                                                                                                                                                                                                                                                                                                                                                                                                                                                                                                                                                                                                                                                                                                                                                                                                              
E|--------0----------------|------0----------------|
B|--------------0----------|------------0----------|
G|--------------------6----|------------------8----|
D|--7----------------------|9----------------------|
A|--7----------------------|9----------------------|
E|--5----------------------|7----------------------|

    
                                                                                                                                                                                                                                                                                                                                                                                                                                                                                                                                                                                                                                                                                                                                                                                                                                                                                                                                                                                                                                                                                                                                                                                              
E|--------0----------------|------0----------------|
B|--------------0----------|------------0----------|
G|--------------------3----|------------------6----|
D|--4----------------------|7----------------------|
A|--4----------------------|7----------------------|
E|--2----------------------|5----------------------|

    
                                                                                                                                                                                                                                                                                                                                                                                                                                                                                                                                                                                                                                                                                                                                                                                                                                                                                                                                                                                                                                                                                                                                                                                              
E|--------0----------------|------0----------------|
B|--------------0----------|------------0----------|
G|--------------------8----|------------------3----|
D|--9----------------------|4----------------------|
A|--9----------------------|4----------------------|
E|--7----------------------|2----------------------|

    
                                                                                                                                                                                                                                                                                                                                                                                                                                                                                                                                                                                                                                                                                                                                                                                                                                                                                                                                                                                                                                                                                                                                                                                              
E|--------0----------------|------0----------------|
B|--------------0----------|------------0----------|
G|--------------------6----|------------------8----|
D|--7----------------------|9----------------------|
A|--7----------------------|9----------------------|
E|--5----------------------|7----------------------|

    
                                                                                                                                                                                                                                                                                                                                                                                                                                                                                                                                                                                                                                                                                                                                                                                                                                                                                                                                                                                                                                                                                                                                                                                              
E|--------0----------------|------0----------------|
B|--------------0----------|------------0----------|
G|--------------------3----|------------------6----|
D|--4----------------------|7----------------------|
A|--4----------------------|7----------------------|
E|--2----------------------|5----------------------|

About Dream Theater : Dream Theater formed in 1985 under the name Majesty by John Petrucci, John Myung and Mike Portnoy . They dropped out of their studies to concentrate on the band that would eventually become Dream Theater . First album, When Dream and Day Unite, was released in 1989 . The band's highest-selling release is the follow-up album Images and Words (1992), which reached No. 61 . Dream Theater has sold over 12 million records worldwide . Along with Queensr├┐che and Fates Warning, the band has received two Grammy Award nominations . Dream Theater The group has many notable artists like John Myung,Mike Portnoy. Their music is influenced by genres - progressive metal progressive rock.

tabs and chords, guitar tabs, music transcription, music technology, deep learning, music information retrieval, transcribe into tabs & chords, chordify, music renditions, songsterr, reverbnation, tabulature, bollywood chords, ultimate guitar, yousician, guitar lessons, acoustic guitar, electric guitar, guitar tuner, 911 tabs