Man On The Moon - R.e.m. - Guitar Tabs

Guitar 1
    
    C                                                                                                                                                                                                                                                                                                                                                                                                                                                                                                                                                                                             C                                                                                                                                                                                                                                                                                                                                                                                                                                                                                                                                                                                             
E|--0-----0--0-----0--0--0-|-0/0--0--0-----0--0--0-|
B|--1-----1--1-----1--1--1-|-1/3--3--3-----3--3--3-|
G|--0-----0--0-----0--0--0-|-0/0--0--0-----0--0--0-|
D|--2-----2--2-----2--2--2-|-2/4--4--4-----4--4--4-|
A|--3-----3--3-----3--3--3-|-3/5--5--5-----5--5--5-|
E|-------------------------|-----------------------|

    
                                                                                                                                                                                                                                                                                                                                                                                                                                                                                                                                                                                                                                                                                                                                                                                                                                                                                                                                                                                                                                                                                                                                                                                              
E|---0/---0--0-----0--0--0-|0-----0--0-----0--0--0-|
B|---3/-1/1--1-----1--1--1-|1-----1--1-----1--1--1-|
G|---0/-0/0--0-----0--0--0-|0-----0--0-----0--0--0-|
D|---4/-2/2--2-----2--2--2-|2-----2--2-----2--2--2-|
A|---5/-3/3--3-----3--3--3-|3-----3--3-----3--3--3-|
E|-------------------------|-----------------------|

    
    C                                                                                                                                                                                                                                                                                                                                                                                                                                                                                                                                                                                             C                                                                                                                                                                                                                                                                                                                                                                                                                                                                                                                                                                                             
E|--0-----0--0-----0--0--0-|-0/0--0--0-----0--0--0-|
B|--1-----1--1-----1--1--1-|-1/3--3--3-----3--3--3-|
G|--0-----0--0-----0--0--0-|-0/0--0--0-----0--0--0-|
D|--2-----2--2-----2--2--2-|-2/4--4--4-----4--4--4-|
A|--3-----3--3-----3--3--3-|-3/5--5--5-----5--5--5-|
E|-------------------------|-----------------------|

    
                                                                                                                                                                                                                                                                                                                                                                                                                                                                                                                                                                                                                                                                                                                                                                                                                                                                                                                                                                                                                                                                                                                                                                                              
E|---0/---0--0-----0--0--0-|0-----0--0-----0--0--0-|
B|---3/-1/1--1-----1--1--1-|1-----1--1-----1--1--1-|
G|---0/-0/0--0-----0--0--0-|0-----0--0-----0--0--0-|
D|---4/-2/2--2-----2--2--2-|2-----2--2-----2--2--2-|
A|---5/-3/3--3-----3--3--3-|3-----3--3-----3--3--3-|
E|-------------------------|-----------------------|

    
    C                                                                                                                                                                                                                                                                                                                                                                                                                                                                                                                                                                                             C                                                                                                                                                                                                                                                                                                                                                                                                                                                                                                                                                                                             
E|--0-----0--0-----0--0--0-|0-----0--0-----0--0--0-|
B|--1-----1--1-----1--1--1-|1-----1--1-----1--1--1-|
G|--0-----0--0-----0--0--0-|0-----0--0-----0--0--0-|
D|--2-----2--2-----2--2--2-|2-----2--2-----2--2--2-|
A|--3-----3--3-----3--3--3-|3-----3--3-----3--3--3-|
E|-------------------------|-----------------------|

    
    C                                                                        D11                                                                                                                                                                                                                                                                                                                                                                                                                                                                                                                     C                                                                        D11                                                                                                                                                                                                                                                                                                                                                                                                                                                                                                                     
E|---0/0--0--0-----0--0--0-|-0/---0--0-----0--0--0-|
B|---1/3--3--3-----3--3--3-|-3/-1/1--1-----1--1--1-|
G|---0/0--0--0-----0--0--0-|-0/-0/0--0-----0--0--0-|
D|---2/4--4--4-----4--4--4-|-4/-2/2--2-----2--2--2-|
A|---3/5--5--5-----5--5--5-|-5/-3/3--3-----3--3--3-|
E|-------------------------|-----------------------|

    
    C                                                                                                                                                                                                                                                                                                                                                                                                                                                                                                                                                                                             C                                                                                                                                                                                                                                                                                                                                                                                                                                                                                                                                                                                             
E|--0-----0--0-----0--0--0-|0-----0--0-----0--0--0-|
B|--1-----1--1-----1--1--1-|1-----1--1-----1--1--1-|
G|--0-----0--0-----0--0--0-|0-----0--0-----0--0--0-|
D|--2-----2--2-----2--2--2-|2-----2--2-----2--2--2-|
A|--3-----3--3-----3--3--3-|3-----3--3-----3--3--3-|
E|-------------------------|-----------------------|

    
    C                                                                        D11                                                                                                                                                                                                                                                                                                                                                                                                                                                                                                                     C                                                                        D11                                                                                                                                                                                                                                                                                                                                                                                                                                                                                                                     
E|---0/0--0--0-----0--0--0-|-0/---0--0-----0--0--0-|
B|---1/3--3--3-----3--3--3-|-3/-1/1--1-----1--1--1-|
G|---0/0--0--0-----0--0--0-|-0/-0/0--0-----0--0--0-|
D|---2/4--4--4-----4--4--4-|-4/-2/2--2-----2--2--2-|
A|---3/5--5--5-----5--5--5-|-5/-3/3--3-----3--3--3-|
E|-------------------------|-----------------------|

    
    C                                                                                                                                                                                                                                                                                                                                                                                                                                                                                                                                                                                             C                                                                                                                                                                                                                                                                                                                                                                                                                                                                                                                                                                                             
E|--0-----0--0-----0--0--0-|0-----0--0-----0--0--0-|
B|--1-----1--1-----1--1--1-|1-----1--1-----1--1--1-|
G|--0-----0--0-----0--0--0-|0-----0--0-----0--0--0-|
D|--2-----2--2-----2--2--2-|2-----2--2-----2--2--2-|
A|--3-----3--3-----3--3--3-|3-----3--3-----3--3--3-|
E|-------------------------|-----------------------|

    
    C                                                                        D11                                                                                                                                                                                                                                                                                                                                                                                                                                                                                                                     C                                                                        D11                                                                                                                                                                                                                                                                                                                                                                                                                                                                                                                     
E|---0/0--0--0-----0--0--0-|-0/---0--0-----0--0--0-|
B|---1/3--3--3-----3--3--3-|-3/-1/1--1-----1--1--1-|
G|---0/0--0--0-----0--0--0-|-0/-0/0--0-----0--0--0-|
D|---2/4--4--4-----4--4--4-|-4/-2/2--2-----2--2--2-|
A|---3/5--5--5-----5--5--5-|-5/-3/3--3-----3--3--3-|
E|-------------------------|-----------------------|

    
    C                                                                                                                                                                                                                                                                                                                                                                                                                                                                                                                                                                                             C                                                                                                                                                                                                                                                                                                                                                                                                                                                                                                                                                                                             
E|--0-----0--0-----0--0--0-|0-----0--0-----0--0--0-|
B|--1-----1--1-----1--1--1-|1-----1--1-----1--1--1-|
G|--0-----0--0-----0--0--0-|0-----0--0-----0--0--0-|
D|--2-----2--2-----2--2--2-|2-----2--2-----2--2--2-|
A|--3-----3--3-----3--3--3-|3-----3--3-----3--3--3-|
E|-------------------------|-----------------------|

    
    C                                                                        D11                                                                                                                                                                                                                                                                                                                                                                                                                                                                                                                     C                                                                        D11                                                                                                                                                                                                                                                                                                                                                                                                                                                                                                                     
E|---0/0--0--0-----0--0--0-|-0/---0--0-----0--0--0-|
B|---1/3--3--3-----3--3--3-|-3/-1/1--1-----1--1--1-|
G|---0/0--0--0-----0--0--0-|-0/-0/0--0-----0--0--0-|
D|---2/4--4--4-----4--4--4-|-4/-2/2--2-----2--2--2-|
A|---3/5--5--5-----5--5--5-|-5/-3/3--3-----3--3--3-|
E|-------------------------|-----------------------|

    
    C                                                                                                                                                                                                                                                                                                                                                                                                                                                                                                                                                                                             C                                                                                                                                                                                                                                                                                                                                                                                                                                                                                                                                                                                             
E|--0-----0--0-----0--0--0-|0-----0--0-----0--0--0-|
B|--1-----1--1-----1--1--1-|1-----1--1-----1--1--1-|
G|--0-----0--0-----0--0--0-|0-----0--0-----0--0--0-|
D|--2-----2--2-----2--2--2-|2-----2--2-----2--2--2-|
A|--3-----3--3-----3--3--3-|3-----3--3-----3--3--3-|
E|-------------------------|-----------------------|

    
    C                                                                                                                                                                                                                                                                                                                                                                                                                                                                                                                                                                                             C                                                                                                                                                                                                                                                                                                                                                                                                                                                                                                                                                                                             
E|---0/0--0--0-----0--0--0-|-0/---0--0-----0--0--0-|
B|---1/3--3--3-----3--3--3-|-3/-1/1--1-----1--1--1-|
G|---0/0--0--0-----0--0--0-|-0/-0/0--0-----0--0--0-|
D|---2/4--4--4-----4--4--4-|-4/-2/2--2-----2--2--2-|
A|---3/5--5--5-----5--5--5-|-5/-3/3--3-----3--3--3-|
E|-------------------------|-----------------------|

    
    C                                                                                                                                                                                                                                                                                                                                                                                                                                                                                                                                                                                             C                                                                                                                                                                                                                                                                                                                                                                                                                                                                                                                                                                                             
E|--0-----0--0-----0--0--0-|0-----0--0-----0--0--0-|
B|--1-----1--1-----1--1--1-|1-----1--1-----1--1--1-|
G|--0-----0--0-----0--0--0-|0-----0--0-----0--0--0-|
D|--2-----2--2-----2--2--2-|2-----2--2-----2--2--2-|
A|--3-----3--3-----3--3--3-|3-----3--3-----3--3--3-|
E|-------------------------|-----------------------|

    
    C                                                                        D11                                                                                                                                                                                                                                                                                                                                                                                                                                                                                                                     C                                                                        D11                                                                                                                                                                                                                                                                                                                                                                                                                                                                                                                     
E|---0/0--0--0-----0--0--0-|-0/---0--0-----0--0--0-|
B|---1/3--3--3-----3--3--3-|-3/-1/1--1-----1--1--1-|
G|---0/0--0--0-----0--0--0-|-0/-0/0--0-----0--0--0-|
D|---2/4--4--4-----4--4--4-|-4/-2/2--2-----2--2--2-|
A|---3/5--5--5-----5--5--5-|-5/-3/3--3-----3--3--3-|
E|-------------------------|-----------------------|

    
    Am                                                                                                                                                                                                                                                                                                                                                                                                                                                                                                                                                                                             Am                                                                                                                                                                                                                                                                                                                                                                                                                                                                                                                                                                                             
E|--0-----0--0-----0--0--0-|3-----3--3-----3--3--3-|
B|--1-----1--1-----1--1--1-|0-----0--0-----0--0--0-|
G|--2-----2--2-----2--2--2-|0-----0--0-----0--0--0-|
D|--2-----2--2-----2--2--2-|0-----0--0-----0--0--0-|
A|--0-----0--0-----0--0--0-|2-----2--2-----2--2--2-|
E|-------------------------|3-----3--3-----3--3--3-|

    
    Am                                                                                                                                                                                                                                                                                                                                                                                                                                                                                                                                                                                             Am                                                                                                                                                                                                                                                                                                                                                                                                                                                                                                                                                                                             
E|--0-----0--0-----0--0--0-|3-----3--3-----3--3--3-|
B|--1-----1--1-----1--1--1-|0-----0--0-----0--0--0-|
G|--2-----2--2-----2--2--2-|0-----0--0-----0--0--0-|
D|--2-----2--2-----2--2--2-|0-----0--0-----0--0--0-|
A|--0-----0--0-----0--0--0-|2-----2--2-----2--2--2-|
E|-------------------------|3-----3--3-----3--3--3-|

    
    Am                                                                                                                                                                                                                                                                                                                                                                                                                                                                                                                                                                                             Am                                                                                                                                                                                                                                                                                                                                                                                                                                                                                                                                                                                             
E|--0-----0--0-----0--0--0-|3-----3--3--0-----0--0-|
B|--1-----1--1-----1--1--1-|0-----0--0--1-----1--1-|
G|--2-----2--2-----2--2--2-|0-----0--0--0-----0--0-|
D|--2-----2--2-----2--2--2-|0-----0--0--2-----2--2-|
A|--0-----0--0-----0--0--0-|2-----2--2--3-----3--3-|
E|-------------------------|3-----3--3-------------|

    
    D                                                                                                                                                                                                                                                                                                                                                                                                                                                                                                                                                                                             D                                                                                                                                                                                                                                                                                                                                                                                                                                                                                                                                                                                             
E|--2-----2--2-----2--2--2-|---2--2--2-----2--2--2-|
B|--3-----3--3-----3--3--3-|---3--3--3-----3--3--3-|
G|--2-----2--2-----2--2--2-|---2--2--2-----2--2--2-|
D|--0-----0--0-----0--0--0-|---0--0--0-----0--0--0-|
A|-------------------------|-----------------------|
E|-------------------------|-----------------------|

    
    G                                                                                                                                                Am                                                                                                                                                                                                                                                                                                                                                                                                                                             G                                                                                                                                                Am                                                                                                                                                                                                                                                                                                                                                                                                                                             
E|--3-----3-----0-----0----|-----------------------|
B|--0-----0-----1-----1----|5--5-----3--------3--3-|
G|--0-----0-----2-----2----|5--5-----4--------4--4-|
D|--0-----0-----2-----2----|5--5-----4--------4--4-|
A|--2-----2----------------|3--3-----2--------2--2-|
E|--3-----3----------------|-----------------------|

    
    G                                                                                                                                                                                                                        Am                                                                                                                                                                                                                                                                                                                                                                     G                                                                                                                                                                                                                        Am                                                                                                                                                                                                                                                                                                                                                                     
E|--3--------3--0-----0----|------0-----0--0-------|
B|--0--------0--1-----1----|------1-----1--1-------|
G|--0--------0--2-----2----|------2-----2--2-------|
D|--0--------0--2-----2----|------2-----2--2-------|
A|--2--------2--0-----0----|------0-----0--0-------|
E|--3--------3-------------|-----------------------|

    
    G                                                                                                                                                Am                                                                                                                                                                                                                                                                                                                                                                                                                                             G                                                                                                                                                Am                                                                                                                                                                                                                                                                                                                                                                                                                                             
E|--3-----3-----0-----0----|-----------------------|
B|--0-----0-----1-----1----|5--5-----3--------3--3-|
G|--0-----0-----2-----2----|5--5-----4--------4--4-|
D|--0-----0-----2-----2----|5--5-----4--------4--4-|
A|--2-----2----------------|3--3-----2--------2--2-|
E|--3-----3----------------|-----------------------|

    
    Am                                                                                                                                                                                                                                                                                                                                                                                                                                                                                                                                                                                             Am                                                                                                                                                                                                                                                                                                                                                                                                                                                                                                                                                                                             
E|--0--------0--------0----|------0-----0--0-------|
B|--1--------1--------1----|------1-----1--1-------|
G|--2--------2--------2----|------2-----2--2-------|
D|--2--------2--------2----|------2-----2--2-------|
A|--0--------0--------0----|------0-----0--0-------|
E|-------------------------|-----------------------|

    
    C                                                                                                                                                                                                                                                                                                                                                                                                                                                                                                                                                                                             C                                                                                                                                                                                                                                                                                                                                                                                                                                                                                                                                                                                             
E|--0-----0--0-----0--0--0-|0-----0--0-----0--0--0-|
B|--1-----1--1-----1--1--1-|1-----1--1-----1--1--1-|
G|--0-----0--0-----0--0--0-|0-----0--0-----0--0--0-|
D|--2-----2--2-----2--2--2-|2-----2--2-----2--2--2-|
A|--3-----3--3-----3--3--3-|3-----3--3-----3--3--3-|
E|-------------------------|-----------------------|

    
    D11                                                                                                                                                                                                                                                                                                                                                                                                                                                                                                                                                                                             D11                                                                                                                                                                                                                                                                                                                                                                                                                                                                                                                                                                                             
E|---0/0--0--0-----0--0--0-|-0/---0--0-----0--0--0-|
B|---1/3--3--3-----3--3--3-|-3/-1/1--1-----1--1--1-|
G|---0/0--0--0-----0--0--0-|-0/-0/0--0-----0--0--0-|
D|---2/4--4--4-----4--4--4-|-4/-2/2--2-----2--2--2-|
A|---3/5--5--5-----5--5--5-|-5/-3/3--3-----3--3--3-|
E|-------------------------|-----------------------|

    
    C                                                                                                                                                                                                                                                                                                                                                                                                                                                                                                                                                                                             C                                                                                                                                                                                                                                                                                                                                                                                                                                                                                                                                                                                             
E|--0-----0--0-----0--0--0-|0-----0--0-----0--0--0-|
B|--1-----1--1-----1--1--1-|1-----1--1-----1--1--1-|
G|--0-----0--0-----0--0--0-|0-----0--0-----0--0--0-|
D|--2-----2--2-----2--2--2-|2-----2--2-----2--2--2-|
A|--3-----3--3-----3--3--3-|3-----3--3-----3--3--3-|
E|-------------------------|-----------------------|

    
    C                                                                        D11                                                                                                                                                                                                                                                                                                                                                                                                                                                                                                                     C                                                                        D11                                                                                                                                                                                                                                                                                                                                                                                                                                                                                                                     
E|---0/0--0--0-----0--0--0-|-0/---0--0-----0--0--0-|
B|---1/3--3--3-----3--3--3-|-3/-1/1--1-----1--1--1-|
G|---0/0--0--0-----0--0--0-|-0/-0/0--0-----0--0--0-|
D|---2/4--4--4-----4--4--4-|-4/-2/2--2-----2--2--2-|
A|---3/5--5--5-----5--5--5-|-5/-3/3--3-----3--3--3-|
E|-------------------------|-----------------------|

    
    C                                                                                                                                                                                                                                                                                                                                                                                                                                                                                                                                                                                             C                                                                                                                                                                                                                                                                                                                                                                                                                                                                                                                                                                                             
E|--0-----0--0-----0--0--0-|0-----0--0-----0--0--0-|
B|--1-----1--1-----1--1--1-|1-----1--1-----1--1--1-|
G|--0-----0--0-----0--0--0-|0-----0--0-----0--0--0-|
D|--2-----2--2-----2--2--2-|2-----2--2-----2--2--2-|
A|--3-----3--3-----3--3--3-|3-----3--3-----3--3--3-|
E|-------------------------|-----------------------|

    
    C                                                                                                                                                                                                                                                                                                                                                                                                                                                                                                                                                                                             C                                                                                                                                                                                                                                                                                                                                                                                                                                                                                                                                                                                             
E|---0/0--0--0-----0--0--0-|-0/---0--0-----0--0--0-|
B|---1/3--3--3-----3--3--3-|-3/-1/1--1-----1--1--1-|
G|---0/0--0--0-----0--0--0-|-0/-0/0--0-----0--0--0-|
D|---2/4--4--4-----4--4--4-|-4/-2/2--2-----2--2--2-|
A|---3/5--5--5-----5--5--5-|-5/-3/3--3-----3--3--3-|
E|-------------------------|-----------------------|

About Man on the Moon (song) : The lyrics were written by lead singer Michael Stipe, and the music by drummer Bill Berry and guitarist Peter Buck . The song peaked at number 30 on the US Billboard Hot 100 and number one in Iceland . Song gave its name to Man on the Moon (1999), MiloŇ° Forman's film based on Kaufman's life . The song's title and chorus refer to the Moon landing conspiracy theories, as an oblique allusion to rumors . "Man on the Moon" is a mid-tempo country-rock song following a verse-chorus structure . The song is somewhat unusual in that the verses are unequal in length . It was released in 1992. It was released as part of album Automatic for the People. The genre is alternative rock country rock. The track was release in 1992. Man on the Moon (song) has a significant contribution from artist(s) Michael Stipe,Bill Berry,Peter Buck. It is related to the album(s) - Automatic for the People. The track has an affiliation to the band(s) - R.E.M..

About Automatic for the People : R.E.M. began production on the album while their previous album, Out of Time (1991), was still ascending top albums charts and achieving global success . The album features ruminations on mortality, loss, mourning and nostalgia . "This is the members of R.E.M. delving deeper than ever," Rolling Stone reviewer Paul Evans concluded of the album . The Athens subversives reveal a darker vision that shimmers new, complex beauty . "Drive", "Try Not to Breathe" and "Nightswimming" were recorded at Paisley Park Studios in December 1990 . After finishing promotional duties for Out of Time, members of R.E.M. began formal work on their next album . It had an affiliation to bands - R.E.M.. Its music is influenced by genres - alternative rock baroque pop.

tabs and chords, guitar tabs, music transcription, music technology, deep learning, music information retrieval, transcribe into tabs & chords, chordify, music renditions, songsterr, reverbnation, tabulature, bollywood chords, ultimate guitar, yousician, guitar lessons, acoustic guitar, electric guitar, guitar tuner, 911 tabs