Bass Tabs for Malice And Lament

(/) Slide Up  (\) Slide Down  (h) Hammer On  (p) Pull Off  (b) Bend (r) Release (v) Vibrato (x) Muted

Tabs for Song : 
BPM : 130

Sec 1 x 2 
Sec 2 x 2
Sec 3 x 2 
Sec 1 x 2 
Sec 4 x 4
Sec 5 x 4 
Sec 5 x 2 (Tremelo)
Sec 5 x 4 


Section 1 
F|--------------------------------------------------------------------------------------------------------------------------------------------------------
C|--------------------------------------------------------------------------------------------------------------------------------------------------------
G|--------------7--------------------7--------------------9--------------------10-------------------7--------------------7--------------3--------3--3--3--
D|--0--0--0--0-----------0--0--0--0-----------0--0--0--0-----------0--0--0--0-----------0--0--0--0-----------0--0--0--0-----------0-----------------------

Section 2
F|-----------------------------------------------------------------------------------------------------------------------------------------------------------------------------------------------------------------------------------------------------------------------------------------------------------------------------------
C|-----------------------------------------------------------------------------------------------------------------------------------------------------------------------------------------------------------------------------------------------------------------------------------------------------------------------------------
G|--------------7--------------7--------------7--------------9--------------10----10----10-------------7--------------7-----7-----7-----------3--------3-----3-----3-----------------7--------------7--------------7--------------9--------------10----10----10----------------7--------------7-----7-----7-----3-----2-----3-----2--
D|--0--0--0--0-----0--0--0--0-----0--0--0--0-----0--0--0--0-----0--0--0--0-----------------0--0--0--0-----0--0--0--0--------------------0--------------------------------0--0--0--0-----0--0--0--0-----0--0--0--0-----0--0--0--0-----0--0--0--0--------------------0--0--0--0-----0--0--0--0-----------------------------------------

Section 3 
F|--------------------------------------------------------------------------------------------------------------------------------------------------------------------------------------------------
C|--------------------------------------------------------------------------------------------------------------------------------------------------------------------------------------------------
G|--------------------------------------------------------------------------------------------------------------------------------------------------------------------------------------------------
D|--0--0--0--0--0--0--0--0--0--0--0--0--0--0--0--0--1--1--1--1--1--1--1--1--1--1--1--1--1--1--1--1--0--0--0--0--0--0--0--0--0--0--0--0--0--0--0--0--1--1--1--1--1--1--1--1--1--1--1--1--1--1--1--1--

Section 4 
F|--------------------------------------------------------------------------------------------------------------------------------------------------------------------------------------------------------------------------
C|--------------------------------------------------------------------------------------------------------------------------------------------------------------------------------------------------------------------------
G|--------------------------------------------------------------------------3-----2-----3-----2-----------------------------------------------------------------------------7--7--7--7--8--8--8--8--10-10-10-10-8--8--8--8--
D|--0--0--0--0--0--0--0--0--0--0--0--0--0--0--0--0--0--0--0--0--0--0--0--0--------------------------0--0--0--0--0--0--0--0--0--0--0--0--0--0--0--0--0--0--0--0--0--0--0--0--------------------------------------------------

Section 5 
F|-----------------------------------------------------------------------------------------------------------------------------------------------
C|-----------------------------------------------------------------------------------------------------------------------------------------------
G|--7-----7--7--7--7--7-----7-----7--7--7--7--7--9--9--9--9--10-10-10-10-7-----7--7--7--7--7-----7-----7--7--7--7--7-----7--7--7--7--3--3--3--3--
D|-----------------------------------------------------------------------------------------------------------------------------------------------

Use manual mode to free up cursor. Paste any tab in acousterr tab maker and we'll play it !!!

tabs and chords, guitar tabs, music transcription, music technology, deep learning, music information retrieval, transcribe into tabs & chords, chordify, music renditions, songsterr, reverbnation, tabulature, bollywood chords, ultimate guitar, yousician, guitar lessons, acoustic guitar, electric guitar, guitar tuner, 911 tabs