Guitar Tabs for Malaguena-modified

(/) Slide Up  (\) Slide Down  (h) Hammer On  (p) Pull Off  (b) Bend (r) Release (v) Vibrato (x) Muted

Tabs for Song : 

Play 2x.
E|-----0-----0-----0-----0-----0-----0-----0-----0-----0-----0-----0-----0--
B|--------------0-----------------0-----------1-----0-----------------------
G|--------1-----------------1-----------2-----------------2-----0-----------
D|--2-----------------2-----------------------------------------------3-----
A|--------------------------------------------------------------------------
E|--------------------------------------------------------------------------

Play 2x.
E|-----0--1--3--1--0-----------------------------------------------------------
B|--------------------------0--3--1--0--1--------------0--1--0--3--1--0--------
G|--------------------------------------------2--1--2--------------------2--1--
D|--2--------------------------------------------------------------------------
A|-----------------------------------------------------------------------------
E|-----------------------------------------------------------------------------

Play 1x.
E|-----0-----0-----0-----0-----0-----0-----0-----0-----0-----0-----0-----0--
B|--------1-----------------0-----------------------------------------------
G|--2-----------2-----0-----------0-----------2-----------------1-----------
D|--------------------------------------3-----------3-----2-----------2-----
A|--------------------------------------------------------------------------
E|--------------------------------------------------------------------------

Play 1x.
E|-----0-----0-----0-----0-----0-----0-----0-----0-----0--------------------------------0--------------
B|--------1-----------------0--------------------------------------------------0--------0--------------
G|--2-----------2-----0-----------0-----------2-----------------------1-----------------1--------------
D|--------------------------------------3-----------3--------2--------------------------2--------------
A|--------------------------------------------------------------------------------------2--------------
E|--------------------------------------------------------------------------------------0--------------

Play 2x.
E|--0-----0-----0-----0--0-----0-----0-----0-----0-----0--0-----0--
B|--0-----0-----0-----0--0-----0-----0-----0-----0-----0--0-----0--
G|--1-----1-----1-----1--1-----1-----2-----2-----2-----2--4-----2--
D|--2-----2-----2-----2--2-----2-----3-----3-----3-----3--5-----3--
A|--2-----2-----2-----2--2-----2-----3-----3-----3-----3--5-----3--
E|--0-----0-----0-----0--0-----0-----0-----0-----0-----0--0-----0--

E|--0-----0-----0--
B|--0-----0-----0--
G|--1-----2-----1--
D|--2-----3-----2--
A|--2-----3-----2--
E|--0-----0-----0--

Paste any tab in acousterr's tab maker and we'll play it !!!
Now supports capo and sound effects for vibrato/pull-off/hammer/bends/mutes etc !!! Checkout help section
tabs and chords, guitar tabs, music transcription, music technology, deep learning, music information retrieval, transcribe into tabs & chords, chordify, music renditions, songsterr, reverbnation, tabulature, bollywood chords, ultimate guitar, yousician, guitar lessons, acoustic guitar, electric guitar, guitar tuner, 911 tabs