Guitar Tabs for Main Kaun Hoon (Secret Superstar) tabs

(/) Slide Up  (\) Slide Down  (h) Hammer On  (p) Pull Off  (b) Bend (r) Release (v) Vibrato

Tabs for Main Kaun hoon Secret Superstar (2017)  : 

Koi ye bata de main hoon kahan
E|-----0-----0--------0-----------0--------
B|--3-----------3--3-----------3-----3-----
G|--------------------------2--------------
D|-----------------------------------------
A|-----------------------------------------
E|-----------------------------------------

Koi to btade mera pata
E|-----0-----0--------0-----------0--------
B|--3-----------3--3-----------3-----3-----
G|--------------------------2--------------
D|-----------------------------------------
A|-----------------------------------------
E|-----------------------------------------

Sahi hai ki nahi meri ye dagar
E|--0--1--1--3---3/5--5--7--8-----5--3-----
B|-----------------------------------------
G|-----------------------------------------
D|-----------------------------------------
A|-----------------------------------------
E|-----------------------------------------

Loon ki nahi main apna ye safar
E|--0--1--1--3---3/5--5--7--8-----5--3-----
B|-----------------------------------------
G|-----------------------------------------
D|-----------------------------------------
A|-----------------------------------------
E|-----------------------------------------

Darr lagta hai sapno se
E|--0-----0-----0--0--5--5--0--------
B|-----3-----3-----------------3--1--
G|-----------------------------------
D|-----------------------------------
A|-----------------------------------
E|-----------------------------------

Kar de na ye tabah
E|--------------0--0--------
B|--1--1--1--3--------3-----
G|--------------------------
D|--------------------------
A|--------------------------
E|--------------------------

Dar lagta hai hai apno se
E|--0-----0-----0--0--5--5--0-----------
B|-----3-----3-----------------3--1-----
G|--------------------------------------
D|--------------------------------------
A|--------------------------------------
E|--------------------------------------

De de na ye daga
E|--------------0--0--------
B|--1--1--1--3--------3-----
G|--------------------------
D|--------------------------
A|--------------------------
E|--------------------------

Main chand hoon ya daag hoon
E|--8--7--3--5-----8--7--3--5-----
B|--------------------------------
G|--------------------------------
D|--------------------------------
A|--------------------------------
E|--------------------------------

Main raakh hu ya aag hu
E|--0--0-----0--3--------------
B|--------3--------3--1--3-----
G|-----------------------------
D|-----------------------------
A|-----------------------------
E|-----------------------------
tabs and chords, guitar tabs, music transcription, music technology, deep learning, music information retrieval, transcribe into tabs & chords, chordify, music renditions, songsterr, reverbnation, tabulature, bollywood chords, ultimate guitar, yousician, guitar lessons, acoustic guitar, electric guitar, guitar tuner, 911 tabs