Bass Tabs for Magbalik - Callalily

(/) Slide Up  (\) Slide Down  (h) Hammer On  (p) Pull Off  (b) Bend (r) Release (v) Vibrato (x) Muted

Tabs for Song : Magbalik - Callalily

>>Please refer to the video para sa mga fills, embellishments, at sa timing.
Thank you
-JL Grooves

Intro (right hand tap)
G|--------11/13-------------------------------------------11/13-------------------------------------
D|-----9---------------------------9/11----------------9---------------------------9/11-------------
A|--7--------------------------7--------------------7--------------------------7--------------------
E|--------------------------5-----------------------------------------------5-----------------------
Intro(normal finger)
G|--------------------------------------------------------------------------------------------------
D|--------------------------------------------------------------------------------------------------
A|--------------------------2--2--2--2--2--2--2--2--4--4--4--4--4--4--4--2--0--0--0--0--0--0--0--0--
E|--0--0--0--0--0--0--0--0--------------------------------------------------------------------------

G|--------------------------------------------------------------------------------------------------
D|--------------------------------------------------------------------------------------------------
A|--------------------------2--2--2--2--2--2--2---2/4--4--4--4--4--4---4\2--0-----0---0/12----------
E|--0--0--0--0--0--0--0--0--------------------------------------------------------------------------
 Verse        Wala  nang  da -ting pa-gtingin
G|--------------------------------------------------------------------------------------------------
D|--------------------------9--------------------9---9/11----------------11-7-----------------------
A|--7-----------------------------------------------------------------------------------------------
E|--------------------------------------------------------------------------------------------------

G|--------------------------------------------------------------------------------------------------
D|--------------------------9--------------------9---9/11----------------11-7-----------------------
A|--7-----------------------------------------------------------------------------------------------
E|--------------------------------------------------------------------------------------------------

G|--------------------------------------------------------------------------------------------------
D|--------------------------9--------------------9---9/11----------------11-7-----------------------
A|--7-----------------------------------------------------------------------------------------------
E|--------------------------------------------------------------------------------------------------

G|-----------------------------------------------------------------------------------------------
D|--------------------------9--------------------9---9/11----------------11-7--------------------
A|--7--------------------------------------------------------------------------------------------
E|--------------------------------------------------------------------------------------------14\


(P.C)             Di magbaba--go                                 pagmama-hal      sa   iyo
G|-----------------------------------4--------------------x---------------------------4/6--4-----------
D|--------------------------------4-----------------------x-----------------------4------------4\2--4--
A|--------------------------2--2--------------------------x-----------------2--------------------------
E|--2-----2--2-----------0--------------------------2--2--x--2-----------0-----------------------------
              Sana'y pa-king-gan        mo      ang a-wit ng             pu - song     i-to
G|-----------------------------------x--------------------------------------------------------------
D|-----------------------------------x--------------------------------------------------------------
A|--------------------------2-----2--x--2--------2--0--0--0--0--0--0--0--0--2--2--2--2--2--2--2---2/
E|--2-----2--2-----------0-----------x--------------------------------------------------------------


(Chorus)                    Tulad ng ...
G|--------------------------------------------------------------------------------------------------
D|--------------------------------------------------------------------------------------------------
A|--14-14-14-14-14-14-14----------------------------------------------------------------------------
E|--------------------------0-----------------------------------------------------------------------

G|--------x-----------------------------x--------------------------x--------------------------------
D|--------x-----------------------------x--------------------------x--------------------------------
A|--------x--------------------2--2-----x--2-----2---2/4-----4-----x--4-----4-----2--0------0/12----
E|--0--0--x--0-----0--0-----0-----------x--------------------------x--------------------------------

G|--------------------------------------------------------------------------------------------------
D|--------------------------------------------------------------------------------------------------
A|--------------------------2--2--2--2--2--2--2---2/4--4--4--4--4--4--4--2--0-----0---0/12----------
E|--0--0--0--0--0--0--0--0--------------------------------------------------------------------------


(Verse 2)
G|--------------------------------------------------------------------------------------------------
D|--------------------------9-----------------------11-------------------11\7--------------------9--
A|--7-----------------------------------------------------------------------------------------------
E|--------------------------------------------------------------------------------------------------

G|-----------------------------------------------------------------------------------------x--------
D|--------------------7--8--9-----------------11/13-11-------------------11\7--------------x---7h9--
A|--7--------------------------------------------------------------------------------------x--------
E|-----------------------------------------------------------------------------------------x--------

G|-----------------------------------------------------------9-----9-----------------------x--------
D|--------------------------9------------------9/11-11----------11----11p9--7--------------x---7h9--
A|--7--------------------------------------------------------------------------------------x--------
E|-----------------------------------------------------------------------------------------x--------

G|-----------------------------------11/13-11-9--11-9--------------------9-----9--11-9--------------
D|--------------------------9-----------------------------11--9h11----------11----------11-9--7-----
A|--7-----------------------------------------------------------------------------------------------
E|--------------------------------------------------------------------------------------------------

G|-----------------------x--
D|---9h11----9-----7-----x--
A|---------------------9\x--
E|-----------------------x--

Back to pre chorus (p.c) this time with the 1 octave slide
G|--------x-----------------------------------------------x--------------------------x--------x--------x--------
D|--------x-----------------------------------------------x--------------------------x--------x--------x--------
A|--------x-----------------2-----------------------4--4--x--4-----4-----2--0-----0--x--0-----x--0-----x---0h2--
E|--0--0--x--0-----0-----0--------------------------------x--------------------------x--------x--------x--------

G|--------x-----------------------------------------------x-----------x--------------x--------x-----------------
D|--------x-----------------------------------------------x-----------x--------------x--------x-----------------
A|--------x--------------4--2--------------------16\4--4--x--4-----4--x--2--0-----0--x--0-----x---0/12-12-12-12-
E|--0--0--x--0-----0--0-----------------------------------x-----------x--------------x--------x-----------------

SOLO

G|--------x--------x--------x--------------x--------x--------x--------------x-----------------------------------
D|--------x--------x--------x--------------x--------x--------x--------------x-----------------------------------
A|--4--4--x--4-----x--4-----x--4--2--2-----x--2-----x--2-----x--2--0--0-----x--0-----0-----0------0/12-12-12-12-
E|--------x--------x--------x--------------x--------x--------x--------------x-----------------------------------

G|--------------------------------------------------------------------------------------------------------------
D|--------------------------------------------------------------------------------------------------------------
A|--4--4--4--4--4--4--4--4--2--2--2--2--2--2--2--2--0--0--0--0--0--0--0---0/12-12-12-12-12-12-12-12-12-12h14-12-
E|--------------------------------------------------------------------------------------------------------------

CHORUS 3

G|--------------------------------------------------------------------------------------------------------------
D|--------------------------------------------------------------------------------------------------------------
A|--------------------------------------------------------------------------------------------------------------
E|--0--------------------------------------------------------------------------------------------------------12\

G|-----------x--------x--------x-----------------x---------------4/6--4-----------x--------x--------x--------------------
D|-----------x--------x--------x-----------------x-----------4--------------------x--------x--------x--------------------
A|-----------x--------x--------x-----4--2--2-----x--2-----2--------------4--4-----x--4-----x--4-----x--2-----0--0---0/12-
E|--0--0-----x--0-----x--0-----x--0--------------x--------------------------------x--------x--------x--------------------

G|--------------------------------------------------------------------------------------------------------
D|--------------------------------------------------------------------------------------------------------
A|--------------------------2--2--2--2--2--2--2---4/6--4--4--4--4--4--4--4--2--0--0--0--0--0--0--0---0h2--
E|--0--0--0--0--0--0--0--0--------------------------------------------------------------------------------

G|--------------------------------------------------------------x--------x--------x--------------------
D|--------------------------------------------------------------x--------x--------x--------------------
A|--------------------------2--2--2--2---2/14-14-14----4--4-----x--4-----x--4-----x--2-----0------0/12-
E|--0--0--0--0---0/12-12-12-------------------------------------x--------x--------x--------------------

~END~
Thank you very much!
Salamat po!!!
tabs and chords, guitar tabs, music transcription, music technology, deep learning, music information retrieval, transcribe into tabs & chords, chordify, music renditions, songsterr, reverbnation, tabulature, bollywood chords, ultimate guitar, yousician, guitar lessons, acoustic guitar, electric guitar, guitar tuner, 911 tabs