Guitar Tabs for Maahi Ve - Neha Kakkar Tabs

(/) Slide Up  (\) Slide Down  (h) Hammer On  (p) Pull Off  (b) Bend (r) Release (v) Vibrato

Tabs for Song : Maahi Ve

Tujhe chaha Rab se bhi zyada
E|--7--7-----7--7------7/8--7--------
B|--------10-------10----------8--7--
G|-----------------------------------
D|-----------------------------------
A|-----------------------------------
E|-----------------------------------

Phir bhi na tujhe pa sake
E|--------------------------------
B|-----7--8--8--7-----------7-----
G|--9--------------9--7--9-----9--
D|--------------------------------
A|--------------------------------
E|--------------------------------

Rahe tere dil mein magar
Teri dhadkan tak na jaa sake(Same As Previous One)

Judke bhi tooti rahi ishqe di dor ve
E|-----------------------------------------------
B|-----7--8--7-----------7-----------------------
G|--9-----------9--7--9-----9--7--------7--------
D|--------------------------------10-10----10-9--
A|-----------------------------------------------
E|-----------------------------------------------

Kisko sunaye jaake toote dil ka shor ve
E|--------------------------------------------------------
B|-----------7--8--7-----------7--------12-12-12/13-13-12-
G|--9--9--9-----------9--7--9-----9--7--------------------
D|--------------------------------------------------------
A|--------------------------------------------------------
E|--------------------------------------------------------

Maahi ve mohabbatan sachiyan ne
E|-----------------------------------------------------
B|-----------------------------------------------------
G|--------12-11-12-11-12-9--9--9--11-9--11-------9--11-
D|--9--9-----------------------------------12-12-------
A|-----------------------------------------------------
E|-----------------------------------------------------

Mangda naseeba kujh hor ae
E|--------------------------------------
B|--------------------------------------
G|--11-9--9--9-----------9--9-----------
D|--------------12-10-10-------10-10-9--
A|--------------------------------------
E|--------------------------------------

tabs and chords, guitar tabs, music contests, music covers, songsterr, reverbnation, renditions, tabulature, bollywood chords, ultimate guitar, yousician, guitar lessons, torrins, fender, gibson, acoustic guitar, electric guitar, youtube covers, gootar, guitar tuner, A-Z tabs, 911 tabs