Guitar Tabs for Maa - Taare Zameen Par, Guitar Solo Tabs

(/) Slide Up  (\) Slide Down  (h) Hammer On  (p) Pull Off  (b) Bend (r) Release (v) Vibrato

Tabs for Song : Guitar Solo of Maa - Taare Zameen Par

Part 1 (play two times )
E|-----------------------------------------------
B|---8/10----8-----------------------------------
G|-----------------------5--7---------5/7-----5--
D|------------------5h7--------7-----------------
A|-----------------------------------------------
E|-----------------------------------------------

Part 2
E|-----------------------------------------------------------------
B|--------------5-----------6--------5--6------6/8------8\6--5--6--
G|-----------5-----------7-----------------------------------------
D|------5h7--------------------------------------------------------
A|-----------------------------------------------------------------
E|-----------------------------------------------------------------

Part3
E|--------------------------------------------------8---------8/10----10b12----8--
B|--------------5-----------6-----5--6------8/10-------10-------------------------
G|-----------5-----------7--------------------------------------------------------
D|------5h7-----------------------------------------------------------------------
A|--------------------------------------------------------------------------------
E|--------------------------------------------------------------------------------

Now supports capo and sound effects for vibrato/pull-off/hammer/bends etc !!! Checkout help section
tabs and chords, guitar tabs, music contests, music covers, songsterr, reverbnation, renditions, tabulature, bollywood chords, ultimate guitar, yousician, guitar lessons, torrins, fender, gibson, acoustic guitar, electric guitar, youtube covers, gootar, guitar tuner, A-Z tabs, 911 tabs