Guitar Tabs for Lys Og Varme Solo

(/) Slide Up  (\) Slide Down  (h) Hammer On  (p) Pull Off  (b) Bend (r) Release (v) Vibrato (x) Muted

Tabs for Song : 
BPM : 200

Song lyrics here 
E|--------------------------------------------------------------------------------
B|--13-13-13-13-13-------------------------------------------------10-11-10----10-
G|-----------------------------------10----10----10-9--10----12-12----------12----
D|--------------------10-7--8-----10----10----------------12----------------------
A|--------------------------------------------------------------------------------
E|--------------------------------------------------------------------------------

Song lyrics here 
E|--------------------------------------15-15-------
B|--18-18-18-------18-18-18-15-15-------------------
G|--------------------------------------------17-17-
D|--------------------------------------------------
A|--------------------------------------------------
E|--------------------------------------------------

Use manual mode to free up cursor. Paste any tab in acousterr tab maker and we'll play it !!!
E|--------------------------------18-17-------
B|--------------------15----------------18-18-
G|-----14-15-17----------17-------------------
D|--------------------------------------------
A|--------------------------------------------
E|--------------------------------------------
tabs and chords, guitar tabs, music transcription, music technology, deep learning, music information retrieval, transcribe into tabs & chords, chordify, music renditions, songsterr, reverbnation, tabulature, bollywood chords, ultimate guitar, yousician, guitar lessons, acoustic guitar, electric guitar, guitar tuner, 911 tabs