Lyin Eyes - Shaun Mcintosh - Guitar Tabs

Rhythm Guitar
    
    G                                                                                                                                                                                                                                                                                                                                                                                                                                                                                                                                                                                             G                                                                                                                                                                                                                                                                                                                                                                                                                                                                                                                                                                                             
E|--3-----3--3--3--3-----3-|---(2)---(2)-----------|
B|--0-----0--0--0--0--(0)0-|0--0--0--0--0--0-----0-|
G|--0-----0--0--0--0--0--0-|0--0--0--0--0--0--0--0-|
D|--0-----0-----0-----0--0-|0--0--0--0--0--0--0--0-|
A|--2-----2-----2-----2----|x-----x-----x-----x----|
E|--3-----3-----3-----3----|3-----3-----3-----3----|

    
    C                                                                                                                                                                                                                                                                                                                                                                                                                                                                                                                                                                                             C                                                                                                                                                                                                                                                                                                                                                                                                                                                                                                                                                                                             
E|--0--0--0--0--0--0--0--0-|0--0--0--0--0--0--0--0-|
B|--1--1--1--1--1--1--1--1-|1--1--1--1--1--1--1--1-|
G|--0--0--0--0--0--0--0--0-|0--0--0--0--0--0--0--0-|
D|--2-----2-----2-----2----|2-----2-----2-----2----|
A|--3-----3-----3-----3----|3-----3-----3-----3----|
E|-------------------------|-----------------------|

    
    Am                                                                                                                                                                                                                                                                                                                                                                                                                                                                                                                                                                                             Am                                                                                                                                                                                                                                                                                                                                                                                                                                                                                                                                                                                             
E|--0--0--0--0--0--0--0--0-|2-----2--2--2-----2--2-|
B|--1--1--1--1--1--1--1--1-|1-----1--1--1-----1--1-|
G|--2--2--2--2--2--2--2--2-|2-----2--2--2-----2--2-|
D|--2-----2-----2--2--2----|0-----0-----0-----0----|
A|--0-----0-----0-----0----|-----------------------|
E|-------------------------|-----------------------|

    
    G                                                                                                                                                                                                                                                                                                                                                                                                                                                                                                                                                                                             G                                                                                                                                                                                                                                                                                                                                                                                                                                                                                                                                                                                             
E|-----------(3)-----------|-----------------------|
B|--0-----0--0--0--0--0--0-|0-----0--0--0--0--0--0-|
G|--0-----0--0--0--0--0--0-|0-----0--0--0--0--0--0-|
D|--0-----0--0--0--0--0--0-|0-----0--0--0--0--0--0-|
A|--2-----2-----2-----2----|2-----2-----2-----2----|
E|--3-----3-----3-----3----|3-----3-----3-----3----|

    
                                                                                                                                                                                                                                                                                                                                                                                                                                                                                                                                                                                                                                                                                                                                                                                                                                                                                                                                                                                                                                                                                                                                                                                              
E|--------3--3--(3)3--3--(3)2--2--2--2--2--2--2--0-|
B|--0--0--0--0--0--0--0--0-|0--0--0--0--0--0--0--0-|
G|--0--0--0--0--0--0--0--0-|0--0--0--0--0--0--0--0-|
D|--0--0--0--0--0--0--0--0-|0-----0-----0--0--0----|
A|--2-----2-----2-----2----|x-----x-----x-----x----|
E|--3-----3-----3-----3----|3-----3-----3-----3----|

    
    C                                                                                                                                                                                                                                                                                                                                                                                                                                                                                                                                                                                             C                                                                                                                                                                                                                                                                                                                                                                                                                                                                                                                                                                                             
E|--------0--0--0--0--0--0-|------0--0--0--0--0--0-|
B|--1--1--1--1--1--1--1--1-|1--1--1--1--1--1--1--1-|
G|--0--0--0--0--0--0--0--0-|0--0--0--0--0--0--0--0-|
D|--2--2--2-----2-----2----|2--2--2-----2-----2----|
A|--3-----3-----3-----3----|3-----3-----3-----3----|
E|-------------------------|-----------------------|

    
    Am                                                                                                                                                                                                                                                                                                                                                                                                                                                                                                                                                                                             Am                                                                                                                                                                                                                                                                                                                                                                                                                                                                                                                                                                                             
E|--------0--0--(0)0--0--0-|0--0--0--0--0--0--0--0-|
B|--1-----1--1--1--1--1--1-|1--1--1--1--1--1--1--1-|
G|--2-----2--2--2--2--2--2-|2--2--2--2--2--2--2--2-|
D|--2-----2--2--2--2--2--2-|2-----2-----2--2--2----|
A|--0-----0-----0-----0----|0-----0-----0-----0----|
E|-------------------------|-----------------------|

    
    D                                                                                                                                                                                                                                                                                                                                                                                                                                                                                                                                                                                             D                                                                                                                                                                                                                                                                                                                                                                                                                                                                                                                                                                                             
E|--2-----2--2--2--2--2--2-|2-----2--2--2--2--2--2-|
B|--3-----3--3--3--3--3--3-|3-----3--3--3--3--3--3-|
G|--2-----2--2--2--2--2--2-|2-----2--2--2--2--2--2-|
D|--0-----0-----0-----0----|0-----0-----0-----0----|
A|-------------------------|------------2-----2----|
E|-------------------------|-----------------------|

    
    G                                                                                                                                                                                                                                                                                                                                                                                                                                                                                                                                                                                             G                                                                                                                                                                                                                                                                                                                                                                                                                                                                                                                                                                                             
E|--3-----3--3--3--3-------|2-----2--2--2--2--2--0-|
B|--0-----0--0--0--0--3--1-|3-----3--3--3--3--3--1-|
G|--0-----0--0--0--0--0----|0-----0--0--0--0--0--0-|
D|--0-----0-----0----------|0-----0-----0-----0----|
A|--2----------------------|x-----x-----x-----x----|
E|--3-----3-----3----------|3-----3-----3-----3----|

    
    C                                                                                                                                                                                                                                                                                                                                                                                                                                                                                                                                                                                             C                                                                                                                                                                                                                                                                                                                                                                                                                                                                                                                                                                                             
E|-----0--0--0--0--0--0--0-|---0--0--0--0--0--0--0-|
B|--1--1--1--1--1--1--1--1-|1--1--1--1--1--1--1--1-|
G|--0--0--0--0--0--0--0--0-|0--0--0--0--0--0--0--0-|
D|--2-----2-----2-----2----|2-----2-----2-----2----|
A|--3-----3-----3-----3----|3-----3-----0-----0----|
E|-------------------------|-----------------------|

    
    Am                                                                                                                                                                                                                                                                                                                                                                                                                                                                                                                                                                                             Am                                                                                                                                                                                                                                                                                                                                                                                                                                                                                                                                                                                             
E|-----0--0--0--0--0--0--0-|0--0--0--0--0--0--0--0-|
B|--1--1--1--1--0--1--0--1-|1--1--1--1--1--1--1--0-|
G|--2--2--2--2--2--2--2--2-|0--0--0--0--0--0--0--0-|
D|--2-----2-----2-----2----|2-----2-----2-----2----|
A|--0-----0-----3-----3----|3-----3-----2-----2----|
E|-------------------------|-----------------------|

    
    G                                                                                                                                                                                                                                                                                                                                                                                                                                                                                                                                                                                             G                                                                                                                                                                                                                                                                                                                                                                                                                                                                                                                                                                                             
E|--3--3--3--3--3--3--3--3-|3--3--3--3-------------|
B|--0--0--0--0--0--0--0--0-|0--0--0--0--3--2--1--0-|
G|--0--0--0--0--0--0--0--0-|0--0--0--0--0--------0-|
D|--0--0--0-----0-----0----|0-----0-----0--------0-|
A|--2-----2-----2-----2----|------------2-----2----|
E|--3-----3-----3-----3----|3-----3----------------|

    
                                                                                                                                                                                                                                                                                                                                                                                                                                                                                                                                                                                                                                                                                                                                                                                                                                                                                                                                                                                                                                                                                                                                                                                              
E|--------3--3--(3)3--3--(3)2--2--2--2--2--2--2--0-|
B|--0--0--0--0--0--0--0--0-|0--0--0--0--0--0--0--0-|
G|--0--0--0--0--0--0--0--0-|0--0--0--0--0--0--0--0-|
D|--0--0--0--0--0--0--0--0-|0-----0-----0--0--0----|
A|--2-----2-----2-----2----|x-----x-----x-----x----|
E|--3-----3-----3-----3----|3-----3-----3-----3----|

    
    C                                                                                                                                                                                                                                                                                                                                                                                                                                                                                                                                                                                             C                                                                                                                                                                                                                                                                                                                                                                                                                                                                                                                                                                                             
E|--------0--0--0--0--0--0-|------0--0--0--0--0--0-|
B|--1--1--1--1--1--1--1--1-|1--1--1--1--1--1--1--1-|
G|--0--0--0--0--0--0--0--0-|0--0--0--0--0--0--0--0-|
D|--2--2--2-----2-----2----|2--2--2-----2-----2----|
A|--3-----3-----3-----3----|3-----3-----3-----3----|
E|-------------------------|-----------------------|

    
    Am                                                                                                                                                                                                                                                                                                                                                                                                                                                                                                                                                                                             Am                                                                                                                                                                                                                                                                                                                                                                                                                                                                                                                                                                                             
E|--------0--0--(0)0--0--0-|0--0--0--0--0--0--0--0-|
B|--1-----1--1--1--1--1--1-|1--1--1--1--1--1--1--1-|
G|--2-----2--2--2--2--2--2-|2--2--2--2--2--2--2--2-|
D|--2-----2--2--2--2--2--2-|2-----2-----2--2--2----|
A|--0-----0-----0-----0----|0-----0-----0-----0----|
E|-------------------------|-----------------------|

    
    D                                                                                                                                                                                                                                                                                                                                                                                                                                                                                                                                                                                             D                                                                                                                                                                                                                                                                                                                                                                                                                                                                                                                                                                                             
E|--2-----2--2--2--2--2--2-|2-----2--2--2--2--2--2-|
B|--3-----3--3--3--3--3--3-|3-----3--3--3--3--3--3-|
G|--2-----2--2--2--2--2--2-|2-----2--2--2--2--2--2-|
D|--0-----0-----0-----0----|0-----0-----0-----0----|
A|--0----------------------|0----------------------|
E|-------------------------|-----------------------|

    
    G                                                                                                                                                                                                                                                                                                                                                                                                                                                                                                                                                                                             G                                                                                                                                                                                                                                                                                                                                                                                                                                                                                                                                                                                             
E|--3-----3--3--3--3-------|2-----2--2--2--2--2--0-|
B|--0-----0--0--0--0--3--1-|3-----3--3--3--3--3--1-|
G|--0-----0--0--0--0--0----|0-----0--0--0--0--0--0-|
D|--0-----0-----0----------|0-----0-----0-----0----|
A|--2----------------------|x-----x-----x-----x----|
E|--3-----3-----3----------|3-----3-----3-----3----|

    
    C                                                                                                                                                                                                                                                                                                                                                                                                                                                                                                                                                                                             C                                                                                                                                                                                                                                                                                                                                                                                                                                                                                                                                                                                             
E|-----0--0--0--0--0--0--0-|---0--0--0--0--0--0--0-|
B|--1--1--1--1--1--1--1--1-|1--1--1--1--1--1--1--1-|
G|--0--0--0--0--0--0--0--0-|0--0--0--0--0--0--0--0-|
D|--2-----2-----2-----2----|2-----2-----2-----2----|
A|--3-----3-----3-----3----|3-----3-----3-----3----|
E|-------------------------|-----------------------|

    
    Am                                                                                                                                                                                                                                                                                                                                                                                                                                                                                                                                                                                             Am                                                                                                                                                                                                                                                                                                                                                                                                                                                                                                                                                                                             
E|-----0--0--0--0--0--0--0-|0--0--0--0--0--0--0--0-|
B|--1--1--1--1--0--1--0--1-|1--1--1--1--1--1--1--0-|
G|--2--2--2--2--2--2--2--2-|0--0--0--0--0--0--0--0-|
D|--2-----2-----2-----2----|2-----2-----2-----2----|
A|--0-----0-----0-----0----|3-----3-----3-----3----|
E|-------------------------|-----------------------|

    
    G                                                                                                                                                                                                                                                                                                                                                                                                                                                                                                                                                                                             G                                                                                                                                                                                                                                                                                                                                                                                                                                                                                                                                                                                             
E|--3--3--3--3--3--3-------|0--0--0--0--2--2--2--2-|
B|--0--0--0--0--0--0--3--1-|1--1--1--1--1--1--1--1-|
G|--0--0--0--0--0--0--0--0-|0--0--0--0--2--2--2--2-|
D|--0--0--0-----0-----0----|2-----2-----0-----0----|
A|--2-----2-----2-----2----|0-----0----------------|
E|--3-----3-----3-----3----|-----------------------|

    
                                                                                                                                                                                                                                                                                                                                                                                                                                                                                                                                                                                                                                                                                                                                                                                                                                                                                                                                                                                                                                                                                                                                                                                              
E|--------3--3--(3)3--3--(3)2--2--2--2--2--2--2--0-|
B|--0--0--0--0--0--0--0--0-|0--0--0--0--0--0--0--0-|
G|--0--0--0--0--0--0--0--0-|0--0--0--0--0--0--0--0-|
D|--0--0--0--0--0--0--0--0-|0-----0-----0--0--0----|
A|--2-----2-----2-----2----|x-----x-----x-----x----|
E|--3-----3-----3-----3----|3-----3-----3-----3----|

    
    C                                                                                                                                                                                                                                                                                                                                                                                                                                                                                                                                                                                             C                                                                                                                                                                                                                                                                                                                                                                                                                                                                                                                                                                                             
E|--------0--0--0--0--0--0-|------0--0--0--0--0--0-|
B|--1--1--1--1--1--1--1--1-|1--1--1--1--1--1--1--1-|
G|--0--0--0--0--0--0--0--0-|0--0--0--0--0--0--0--0-|
D|--2--2--2-----2-----2----|2--2--2-----2-----2----|
A|--3-----3-----3-----3----|3-----3-----3-----3----|
E|-------------------------|-----------------------|

    
    Am                                                                                                                                                                                                                                                                                                                                                                                                                                                                                                                                                                                             Am                                                                                                                                                                                                                                                                                                                                                                                                                                                                                                                                                                                             
E|--------0--0--(0)0--0--0-|0--0--0--0--0--0--0--0-|
B|--1-----1--1--1--1--1--1-|1--1--1--1--1--1--1--1-|
G|--2-----2--2--2--2--2--2-|2--2--2--2--2--2--2--2-|
D|--2-----2--2--2--2--2--2-|2-----2-----2--2--2----|
A|--0-----0-----0-----0----|0-----0-----0-----0----|
E|-------------------------|-----------------------|

    
    D                                                                                                                                                                                                                                                                                                                                                                                                                                                                                                                                                                                             D                                                                                                                                                                                                                                                                                                                                                                                                                                                                                                                                                                                             
E|--2-----2--2--2--2--2--2-|2-----2--2--2--2--2--2-|
B|--3-----3--3--3--3--3--3-|3-----3--3--3--3--3--3-|
G|--2-----2--2--2--2--2--2-|2-----2--2--2--2--2--2-|
D|--0-----0-----0-----0----|0-----0-----0-----0----|
A|--0----------------------|0----------------------|
E|-------------------------|-----------------------|

    
    G                                                                                                                                                                                                                                                                                                                                                                                                                                                                                                                                                                                             G                                                                                                                                                                                                                                                                                                                                                                                                                                                                                                                                                                                             
E|--3-----3--3--3--3-------|2-----2--2--2--2--2--0-|
B|--0-----0--0--0--0--3--1-|3-----3--3--3--3--3--1-|
G|--0-----0--0--0--0--0----|0-----0--0--0--0--0--0-|
D|--0-----0-----0----------|0-----0-----0-----0----|
A|--2----------------------|x-----x-----x-----x----|
E|--3-----3-----3----------|3-----3-----3-----3----|

    
    C                                                                                                                                                                                                                                                                                                                                                                                                                                                                                                                                                                                             C                                                                                                                                                                                                                                                                                                                                                                                                                                                                                                                                                                                             
E|-----0--0--0--0--0--0--0-|---0--0--0--0--0--0--0-|
B|--1--1--1--1--1--1--1--1-|1--1--1--1--1--1--1--1-|
G|--0--0--0--0--0--0--0--0-|0--0--0--0--0--0--0--0-|
D|--2-----2-----2-----2----|2-----2-----2-----2----|
A|--3-----3-----3-----3----|3-----3-----3-----3----|
E|-------------------------|-----------------------|

    
    Am                                                                                                                                                                                                                                                                                                                                                                                                                                                                                                                                                                                             Am                                                                                                                                                                                                                                                                                                                                                                                                                                                                                                                                                                                             
E|-----0--0--0--0--0--0--0-|0--0--0--0--0--0--0--0-|
B|--1--1--1--1--0--1--0--1-|1--1--1--1--1--1--1--1-|
G|--2--2--2--2--2--2--2--2-|0--0--0--0--0--0--0--0-|
D|--2-----2-----2-----2----|2-----2-----2-----2----|
A|--0-----0-----0-----0----|3-----3-----3-----3----|
E|-------------------------|-----------------------|

    
    G                                                                                                                                                C                                                                        G                                                                                                                                                D7                                                                                                                                                                                                                     G                                                                                                                                                C                                                                        G                                                                                                                                                D7                                                                                                                                                                                                                     
E|--3--3--3--3--3--3--2--(2)3----------------------|
B|--0--0--0--1--0--0--1--(1)0----------------------|
G|--0--0--0--0--0--0--2--(2)0----------------------|
D|--0-----0--2--0-----0----|0----------------------|
A|--2-----2-----2-----0----|2----------------------|
E|--3-----3-----3----------|3----------------------|

    
                                                                                                                                                                                                                                                                                                                                                                                                                                                                                                                                                                                                                                                                                                                                                                                                                                                                                                                                                                                                                                                                                                                                                                                              
E|--3--------3--3----------|(3)------(3)(3)------(3)
B|--0--------0--0----------|1--------1--1--------0-|
G|--0--------0--0----------|0--------0--0--------0-|
D|--0--------0--0----------|2--------2--2--------0-|
A|--2-----------2----------|-----------------------|
E|--3-----------3----------|3--------3--3----------|
tabs and chords, guitar tabs, music transcription, music technology, deep learning, music information retrieval, transcribe into tabs & chords, chordify, music renditions, songsterr, reverbnation, tabulature, bollywood chords, ultimate guitar, yousician, guitar lessons, acoustic guitar, electric guitar, guitar tuner, 911 tabs