Ukulele Tabs for Lovely

(/) Slide Up  (\) Slide Down  (h) Hammer On  (p) Pull Off  (b) Bend (r) Release (v) Vibrato (x) Muted

Tabs for Song : 

Song lyrics here
A|--------------------------------------------------------------------------------------------------
E|--3-----3-----3-----3-----3-----3-----3-----3-----3-----3-----3-----3-----2-----2-----2-----2-----
C|-----4-----4-----4-----4-----4-----4-----4-----4-----4-----4-----4-----4-----2-----2-----2-----2--
G|--------------------------------------------------------------------------------------------------

A|--------------------------------------------------------------------------------------------------
E|--3-----3-----3-----3-----3-----3-----3-----3-----3-----3-----3-----3-----2-----2-----2-----2-----
C|-----4-----4-----4-----4-----4-----4-----4-----4-----4-----4-----4-----4-----2-----2-----2-----2--
G|--------------------------------------------------------------------------------------------------

A|---0h2--2--0--0------------------------------0h2--2--0--0-----------------------------------------
E|---3h------------3--3-----3-----3-----3------3h------------3--3-----3-----2-----2-----2-----2-----
C|---4h------------------4-----4-----4-----4---4h------------------4-----4-----2-----2-----2-----2--
G|---0h----------------------------------------0h---------------------------------------------------

A|---0h2--2--0--0------------------------------0h2--2--0--0-----------------------------
E|---3h------------3--3-----3-----3-----3------3h------------3--3-----3-----2-----2-----
C|---4h------------------4-----4-----4-----4---4h------------------4-----4-----2-----2--
G|---0h----------------------------------------0h---------------------------------------

A|---0h2--0---------------0h2---5/7--5--2------0h2--0---------------0h2---5/7--5--2--
E|---2h------3--0--2--3---3h------------2------2h------3--0--2--3---3h------------2--
C|---2h---------0-----4---4h------------2------2h---------0-----4---4h------------2--
G|---0h-------------------0h------------4------0h-------------------0h------------4--

A|---0h2--0---------------0h2---5/7--5--2------0h2--0---------------0h2---5/7--5--2--
E|---2h------3--0--2--3---3h------------2------2h------3--0--2--3---3h------------2--
C|---2h---------0-----4---4h------------2------2h---------0-----4---4h------------2--
G|---0h-------------------0h------------4------0h-------------------0h------------4--

A|--2--0--------------------2--0--------------------2--0--------------------------------------
E|--3-----3--2--0---5p3--2--3-----3--2--0--2--0--3--3-----3--2--0---5p3--2---2/3--2--2--0--3--
C|--0-----------------------0--------------2--------0------------------------4/------------4--
G|--0-----------------------0-----------------------0-----------------------------------------

A|---0h2--2--0--0------------------------------0h2--2--0--0-----------------------------------------
E|---3h------------3--3-----3-----3-----3------3h------------3--3-----3-----2-----2-----2-----2-----
C|---4h------------------4-----4-----4-----4---4h------------------4-----4-----2-----2-----2-----2--
G|---0h----------------------------------------0h---------------------------------------------------

A|---0h2--2--0--0------------------------------0h2--2--0--0-----------------------------------------
E|---3h------------3--3-----3-----3-----3------3h------------3--3-----3-----2-----2-----2-----2-----
C|---4h------------------4-----4-----4-----4---4h------------------4-----4-----2-----2-----2-----2--
G|---0h----------------------------------------0h---------------------------------------------------

A|---0h2--0---------------0h2---5/7--5--2------0h2--0---------------0h2---5/7--5--2--
E|---2h------3--0--2--3---3h------------2------2h------3--0--2--3---3h------------2--
C|---2h---------0-----4---4h------------2------2h---------0-----4---4h------------2--
G|---0h-------------------0h------------4------0h-------------------0h------------4--

A|---0h2--0---------------0h2---5/7--5--2------0h2--0---------------0h2---5/7--5--2--
E|---2h------3--0--2--3---3h------------2------2h------3--0--2--3---3h------------2--
C|---2h---------0-----4---4h------------2------2h---------0-----4---4h------------2--
G|---0h-------------------0h------------4------0h-------------------0h------------4--

A|--2--0--------------------2--0--------------------2--0--------------------------------------------------
E|--3-----3--2--0---5p3--2--3-----3--2--0--2--0--3--3-----3--2--0---5p3--2---2/3--2--2--0---3/2--0--------
C|--0-----------------------0--------------2--------0------------------------4/-------------4/-------2/4--
G|--0-----------------------0-----------------------0-----------------------------------------------------

Song lyrics here


Paste any tab in acousterr's tab maker and we'll play it !!!
Now supports capo and sound effects for vibrato/pull-off/hammer/bends/mutes etc !!! Checkout help section
tabs and chords, guitar tabs, music transcription, music technology, deep learning, music information retrieval, transcribe into tabs & chords, chordify, music renditions, songsterr, reverbnation, tabulature, bollywood chords, ultimate guitar, yousician, guitar lessons, acoustic guitar, electric guitar, guitar tuner, 911 tabs